E-Chords
Inme

Spur Of The Moment(Tabs)

Inme

roll up this ad to continue

Key: D
Tuning ? Drop D ? D A D G B E 
Tabber ? Podg69 
Last Updated on 4/8/03 
 
Key 
Pull Off   - p 
Palm mute  - pm... 
Mute       - x 
 
Intro: 
|----------------------------------------| 
|----------------------------------------| 
|----------------------------------------| 
|-5p4-0-5p4-0-----------------------4--7-| 
|-------------5p4-0-5p4-0-5p4-0---0----7-| 
|-------------------------------5------7-| 
 
Chorus: 
|-------------------------| 
|-------------------------| 
|-44444-----7-6--7x777777-| 
|-44444--55------7x777777-| 
|-22222--55------5x555555-| 
|--------55---------------| 
 
Verse 
|--------------------------------------------------------------| 
|--------------------------------------------------------------| 
|----------4---------------------4-----------------------------| 
|----------------4---------------------4--------------77777777-| 
|--7--5---5-----2---5----7--5---5-----2---5---7--5----77777777-| 
|-7------5--------------7------5-------------7--------77777777-| 
pm                                                    ........ 
 
Verse 2: 
|-----------------------------------------------------------------------------| 
|---------------------------------------------------8-7-------8-7-------------| 
|----------4---------------------4----------------------7---------7-----------| 
|----------------4---------------------4-----------------------------77777777-| 
|--7--5---5-----2---5----7--5---5-----2---5---7--5-------------------77777777-| 
|-7------5--------------7------5-------------7-----------------------77777777-| 
pm                                                                   ........ 
 
Interlude: 
|----------------------------------| 
|----------------------------------| 
|----------------------------------| 
|-44444--00000--77777--2-2-2-2-2-2-| 
|-44444--00000--77777--2-2-2-2-2-2-| 
|-44444--00000--77777--2-2-2-2-2-2-| 
 
|-----------------------------| 
|-----------------------------| 
|-----------------------------| 
|-44444--00000--77777--222222-| 
|-44444--00000--77777--222222-| 
|-44444--00000--77777--222222-| 
 
Pre-Chorus: 
|---------------------------------------------| 
|---------------------------------------------| 
|-------------------------------------------7-| 
|-5p4-0--5p4-0-----------------5-4--7-5-555-7-| 
|--------------5p4-0-5p4-0-5p4-5-4--7-5-555-5-| 
|------------------------------5-4--7-5-555---| 
pm                                      ... 
 
Outro:  
|---| 
|---| 
|-7-| 
|-7-| 
|-5-| 
|---| 
 
Song Order: 
Intro      x 1 
Chorus     x 1 
Verse 1    x 1 
Chorus     x 2 
Intro      x 1 
Verse 2    x 1   
Chorus     x 2 
Interlude  x 2 
Pre-Chorus x 1 
Chorus     x 2 
Outro      x 1 
 
Any mistakes please email me at - [email protected] so I can correct them. 
 
share this page

See Also: