E-Chords
Inme

Spur Of Moment(Tabs)

Inme

roll up this ad to continue

Key: D
Tuning - Drop D 
Tabbed By:- [email protected] 
There are some bits I'm not entirely sure on so comments/corrections would be greatly appreciated...thanx  :) x 
 
Intro                                         OR the way Gooner85 suggested (simpler) 
E---------------------------------------------  E------------------------------------ 
B---------------------------------------------  B------------------------------------ 
G---------------------------------------------  G------------------------------------ 
D--5p4---5p4---------------------------4---7--  D--5p4-0--5p4-0---------------------- 
A-----5-----5--5p4---5p4---5p4-------------7--  A----------------5p4-0--5p4-0--5p4-0- 
D------------------7-----7-----7--5-7------7--  D------------------------------------ 
 
'Come to me in my dreams and....' 
E-------------------------------------------------- 
B-------------------------------------------------- 
G--44444-----7-6--7x777777------------------------- 
D--44444--55------7x777777------------------------- 
A--22222--55------5x555555------------------------- 
D---------55--------------------------------------- 
 
Verse 1 
'You are composed...' 
E------------------------------------------------------------- 
B------------------------------------------------------------- 
G-----------4---------------------4--------------------------- 
D-----------------4---------------------4--------------7-7-7-- 
A---7--5---5-----2---5----7--5---5-----2---5---7--5-----7-7-7-- 
D--7------5--------------7------5-------------7--------7-7-7-- 
						       pm... 
'Come to me in my dreams and....' 
E----------------------------------------------------- 
B----------------------------------------------------- 
G--44444-----7-6--7x777777---------------------------- 
D--44444--55------7x777777----------------------------     x2 
A--22222--55------5x555555---------------------------- 
D---------55------------------------------------------ 
 
E-------------------------------------------------- 
B-------------------------------------------------- 
G-------------------------------------------------- 
D--5p4---5p4--------------------------------------- 
A-----5-----5--5p4---5p4---5p4-------------4--5---- 
D------------------7-----7-----7--5-4-7-5-------7-- 
 
Verse 2 
'The shoal of the gilled....' 
E----------------------------------------------------- 
B----------------------------------------------------- 
G-----------4---------------------4------------------- 
D-----------------4---------------------4------------- 
A---7--5---5-----2---5----7--5---5-----2---5---7--5---- 
D--7------5--------------7------5-------------7------- 
 
'Take all my sins...' 
E---------------------------------------- 
B---8-7-------8-7------------------------ 
G------7---------7----------------------- 
D-----------------------77777------------ 
A-----------------------77777------------ 
D-----------------------77777------------ 
                         pm.... 
 
'Come to me in my dreams and....' 
E----------------------------------------------------- 
B----------------------------------------------------- 
G--44444-----7-6--7x777777---------------------------- 
D--44444--55------7x777777----------------------------      x2 
A--22222--55------5x555555---------------------------- 
D---------55------------------------------------------ 
 
Bridge 
'My skin is raw...' 
E------------------------------------------------------ 
B------------------------------------------------------ 
G------------------------------------------------------ 
D--44444---00000---77777---2-2-2-2-2-2----------------- 
A--44444---00000---77777---2-2-2-2-2-2----------------- 
D--44444---00000---77777---2-2-2-2-2-2----------------- 
 
'My heart shivers....' 
E------------------------------------------------------ 
B------------------------------------------------------ 
G------------------------------------------------------ 
D--44444---00000---77777---222222---------------------- 
A--44444---00000---77777---222222---------------------- 
D--44444---00000---77777---222222---------------------- 
 
'My life content....' 
E------------------------------------------------------ 
B------------------------------------------------------ 
G------------------------------------------------------ 
D--44444---00000---77777---2-2-2-2-2-2----------------- 
A--44444---00000---77777---2-2-2-2-2-2----------------- 
D--44444---00000---77777---2-2-2-2-2-2----------------- 
 
'My library of gold...' 
E------------------------------------------------------ 
B------------------------------------------------------ 
G------------------------------------------------------ 
D--44444---00000---22222---222222---------------------- 
A--44444---00000---22222---222222---------------------- 
D--44444---00000---22222---222222---------------------- 
 
E----------------------------------------------------- 
B----------------------------------------------------- 
G---------------------------------------------7--4---- 
D--5p4---5p4--------------------5-4--7-5-555--7--4---- 
A-----5-----5--5p4---5p4---5p4--5-4--7-5-555--5--2---- 
D-------------------7-----7-----5-4--7-5-555---------- 
                                         pm.. 
'Come to me in my dreams and....' 
E----------------------------------------------------- 
B----------------------------------------------------- 
G--44444-----7-6--7x777777---------------------------- 
D--44444--55------7x777777----------------------------      x2 
A--22222--55------5x555555---------------------------- 
D---------55------------------------------------------ 
 
End On  
E---- 
B---- 
G-7-- 
D-7-- 
A-5-- 
D---- 
 
share this page

See Also: