E-Chords
Inme

Ruins acoustic(Tabs)

Inme

roll up this ad to continue

Key: D
Tuning:  D A D G B E 
E-mail:  [email protected] 
 
Just to tell you this rules, and after seein dave live doin an acoustic 
of it, it inspired me to do one. it is very accurate and sounds ace. 
 
Intro: 
 
E-------------------------------------- 
B-------------------------------------- 
G-------------------------------------- 
D---7---5---4---2---0---0---0---0------ 
A---0---0---0---0---4---5---4---5------ 
D---0---0---0---0---0---0---0---0------ 
 
Verse: 
 
E------------------------------------------------- 
B------------------------------------------------- 
G------------------------------------------------- 
D-2---4---2---7---9---0---0---9---7---9---0---0--- 
A-0---0---0---0---0---4---5---9---7---9---4---5--- 
D-0---0---0---0---0---5---5---9---7---9---5---5--- 
 
Chorus: 
 
E-------------0----------- 
B---------------0--------- 
G-2---4-----------2-----2-      x3 
D-2---4---5---------0----- 
A-0---2---5-----------0--- 
D---------5--------------- 
 
As simple and stupid as it looks ud be surprisingly satisfied. And seen as you 
cant get any live acoustic versions off the net yet if u add my msn 
'[email protected]' i can send u my recording of this tab so u can compare 
the tab to it (to help). O yer and obviously all the chords arent played once, just  
about every chord using an up down strumming pattern (i think) and it shud go  
together gud. O and strum this tune along to the song it fits in perfectly n sounds  
ace its easier than it sounds ;) 
                                        Haz 
 
share this page

See Also: