E-Chords
Inme

Gelosea(Tabs)

Inme

roll up this ad to continue

Intro: 
E------------------------------| 
B------------------------------| 
G------------------------------| 
D-0-0-0-0-11-0-0-0-0-12-0-0-12-| 
A-0-0-0-0-11-0-0-0-0-12-0-0-12-| x3 using up then down strokes 
D-0-0-0-0-11-0-0-0-0-12-0-0-12-|    for the open string notes 
 
E--------------------------| 
B--------------------------| 
G--------------------------| 
D-0-0-0-0-11-0-4-0-1-1-1-1-| 
A-0-0-0-0-11-0-4-0-1-1-1-1-| x1 Slightly lift your finger so it  
D-0-0-0-0-11-0-4-0-1-1-1-1-|    still touches the strings but 
                                it slightly mutes it between  
                                each 1-1-1-1 
 
Verse: 
 
E-------------------------------------------------------------| 
B-------------------------------------------------------------| 
G-------------------------------------------------------------| 
D-----5-------5-------9-------10-----5-------5-------9-----10-| 
A---0---0---0---0---7---7---8------0---0---0---0---7----------| 
D-0-------0-------7-------8------0-------0-------7-------8----| 
                                                       | 
                                          here there is a little pause  
                                                   
Chorus:                                            
 
E-------------------|-------------------| 
B-------------------|-------------------| 
G-------------------|-6-6-6-------------| 
D-4-4-4-4-4-4-4-4-7-|-------6-6-6-6h7p6-| 
A-4-4-4-4-4-4-4-4-7-|-------------------| 
D-4-4-4-4-4-4-4-4-7-|-------------------| 
 
E---------------------------------| 
B---------------------------------| 
G---------------------------------| 
D-0-0-0-0-0-0-0-0-2-2-2-2-2-2-2-2-| 
A-0-0-0-0-0-0-0-0-2-2-2-2-2-2-2-2-| 
D-0-0-0-0-0-0-0-0-2-2-2-2-2-2-2-2-| 
 
E---------------------|-----------------| 
B---------------------|-----------------| 
G---------------------|-----------------| 
D-11-11-11-11-9-7/6-4-|-4-x-4-x-4-x-4-7-| 
A-11-11-11-11-9-7/6-4-|-4-x-4-x-4-x-4-7-| 
D-11-11-11-11-9-7/6-4-|-4-x-4-x-4-x-4-7-| 
 
E-------------------|----------------- 
B-------------------|----------------- 
G-6-6-6-------------|----------------- 
D-------6-6-6-6H7P6-|-0-0-0-0-0-0-0-0- 
A-------------------|-0-0-0-0-0-0-0-0- 
D-------------------|-0-0-0-0-0-0-0-0- 
 
E-----------------|---------------------|  all these strumming   
B-----------------|---------------------|  patterns may or may   
G-----------------|---------------------|  not be correct its   
D-2-2-2-2-2-2-2-2-|-11-11-11-11-9-7/6-4-|  just how i adapted to  
A-2-2-2-2-2-2-2-2-|-11-11-11-11-9-7/6-4-|  them so if you can't get  
D-2-2-2-2-2-2-2-2-|-11-11-11-11-9-7/6-4-|  the hang of them make up  
                                           your own.    
                                            
Interlude: 
 
E----------------------------------------------------------------------| 
B----------------------------------------------------------------------| 
G----------------------------------------------------------------------| 
D-----9-------9-------5-------5-------7-------7---------12----------12-| 
A---7---7---7---7---3---3---3---3---5---5---5---5----10----10----10----| 
D-7-------7-------3-------3-------5-------5-------10----------10-------| 
 
E-------------------------------| 
B-------------------------------|  this uses a Delay  
G-------------------------------|  the last note rings 
D-------5h7-7-------5h7-7-------| 
A-5h7-7-------5h7-7-------5h7-7-| x3  This part can only be done with 2   
D-------------------------------|     guitarists 
                                       
                                      
                                        
                                       
 
Chorus 2: 
 
Its almost exactly the same except instead of ending with 1.  
it ends with 2. 
 
1.                      2. 
 
E---------------------|  E----------------------| 
B---------------------|  B----------------------| 
G---------------------|  G----------------------| 
D-11-11-11-11-9-7/6-4-|  D-0-0-0-11-0-4-1-1-1-1-| 
A-11-11-11-11-9-7/6-4-|  A-0-0-0-11-0-4-1-1-1-1-| 
D-11-11-11-11-9-7/6-4-|  D-0-0-0-11-0-4-1-1-1-1-| 
                                          | | | 
                                           _ _ 
                                            |   
                         these last 3 notes strummed alot harder  
 
Outro: 
 
E-------------------------------------------------------------------------| 
B-------------------------------------------------------------------------| 
G-----2-------2-------6-------6-------------------------------------------| 
D-------------------------------------2-----2-----2-----------------------| 
A---4---4---4---4---7---7---7---7---0-----0-----0---0-2h4-4-4-4-4-2-0-----| 
D-4-------4-------7-------7-------0-----0-----0-----------------------6-4-| 
 
 
Order: 
 
intro 
Verse 
chorus 1 
Verse 
chorus 1 
Interlude 
chorus 2 
Outro 
 
Lyrics: 
 
Why don't you come and feed me? 
Feed me all my memories 
And I'll wash it down with all your goodness 
Your goodness 
I guess I won 
But I just can't seem to change 
You lied to me, You lied to me 
You don't even know my name 
There is good im me and it's proud to love you 
I chose to be a dreamer 
But your reality seems sweeter 
To taste it would turn my whole life around and around 
I am containing what is real for something I cannot conceal. 
 
 
 
 
This is my first tab so don't be surprised if it's wrong, i hope that 
its been of help, Langeeeee!!!!(actually this has been update, but i still hope 
it helps!!!!) 
                                    Haz 
 
share this page

See Also: