E-Chords
Inme

Deep Regret(Tabs)

Inme

roll up this ad to continue

Key: A
E-mail:  [email protected] 
 
Intro: 
 
Guitar 1 (none harmonic): 
                 A                                           B 
E------------------------------------------|---------------------------------------- 
B------------------------------------------|---------------------------------------- 
G------------------------------------------|---------------------------------------- 
D-----7----7----7----7--7-7----2----4----2-|-----11------12------12------12------11- 
A---5----5----5----5---------0----0----0---|---9------10------12------12------12---- 
D-0----5----5----5----7----0----0----0-----|-9-----10------12------12------12------- 
                  C 
E-------------------------------------| then the last section of the 
B-------------------------------------| below harmonics are played here 
G-------------------------------------| (at end) 
D-----8----7----5----5----5----5----7-| 
A---8----7----5----5----5----0----5---| 
D-8----7----5----5----5----5----0-----| 
 
Or alternatively u cud play part B + C like this 
 
E--------------------------------------------------------------------------- 
B-----2-----3--------------------------------------------------------------- 
G-----------------7-----7-----6-------3-----2------------------------------- 
D---4-----5-----7-----7-----7-------3-----2-------5-----5-----5-----5-----7- 
A-2-----3-----5-----5-----5-------1-----0-------5-----5-----5-----0-----5--- 
D---------------------------------------------5-----5-----5-----5-----0----- 
personal i prefer this version so im goin to do the verse like that as well 
 
Ive put this up so ppl dont write it in my corrections. 
 
Guitar 2 (harmonics): 
 
E------------|------------|--5*-----------| 
B------------|------------|-----5*--------| 
G------------|------------|--------5*-----| 
D--5*--------|--------5*--|-----------5*--| 
A-----4*-----|--5*--------|---------------| 
D--------5*--|-----5*-----|---------------| 
 
Verse: 
 
Guitar 1 (none harmonic): 
  
E-------------------------------------------------|------------------------------- 
B-------------------------------------------------|-----2-----3------------------- 
G-------------------------------------------------|-----------------7-----7-----7- 
D-----7-----7-----7-----7-----7-----0-----0-----0-|---4-----5-----7-----7-----7--- 
A---5-----5-----5-----5-----7-----0-----0-----0---|-2-----3-----5-----5-----5----- 
D-0-----5-----5-----5-----7-----0-----0-----0-----|------------------------------- 
 
E-------------------------| 
B-------------------------| 
G-----6-----6-----6-----6-| 
D---7-----7-----7-----7---| 
A-5-----5-----5-----5-----| 
D-------------------------| 
 
Guitar 2 (harmonic) 
 
E------------|------------|--5*-----------| 
B------------|------------|-----5*--------| 
G------------|------------|--------5*-----| 
D--5*--------|--------5*--|-----------5*--| 
A-----4*-----|--5*--------|---------------| 
D--------5*--|-----5*-----|---------------| 
 
Chorus Chords: 
 
E---------|---------|----------|----------|---------| 
B---------|---------|----------|----------|---------| 
G----2----|----7----|----11----|-----9----|----7----| 
D----0----|----0----|----12----|----11----|----7----| U can actually play all the 3 
A----0----|----0----|-----0----|-----0----|----5----| note chords with an open D if u want. 
D---------|---------|----------|----------|----5----| it sumtimes sounds betta. 
 
E---------|---------|----------|----------|---------| 
B---------|---------|----------|----------|---------| 
G----6----|----7----|----11----|-----9----|----7----| 
D----7----|----7----|----12----|----11----|----7----| 
A----5----|----5----|-----0----|-----0----|----5----| 
D---------|---------|----------|----------|----5----| 
 
Pre-Interlude: 
 
E-----------------|---------|---------|---- 
B-----------------|---------|---------|---- 
G-6-6-6-6-6-6-4-6-|----9----|----7----|---- 
D-6-6-6-6-6-6-6-6-|----9----|----7----|---- 
A-4-4-4-4-4-4-4-4-|----7----|----5----|---- 
D-----------------|---------|----5----|---- 
 
E-----------------|---------|---------------------| 
B-----------------|---------|---------------------| 
G-6-6-6-6-6-6-4-6-|----9----|-----------------2h4-| 
D-6-6-6-6-6-6-6-6-|----9----|-0-0-0-0-----2h4-----| 
A-4-4-4-4-4-4-4-4-|----7----|-0-0-0-0-0h2---------| 
D-----------------|---------|-0-0-0-0-------------| 
 
Then 2nd time through guitar 2 plays: 
 
E-9-----9-----9-----9-----10------10------10------10------9-----9-----9-----9----- 
B---9-----9-----9-----9------10------10------10------10-----9-----9-----9-----9--- 
G-----9-----9-----9-----9-------9-------9-------9-------9-----9-----9-----9-----9- 
D--------------------------------------------------------------------------------- 
A--------------------------------------------------------------------------------- 
D--------------------------------------------------------------------------------- 
 
E-7-----7-----7-----7-----| When u play this part by its self it doesnt sound 
B---7-----7-----7-----7---| as right, but, if u play it with the actual track 
G-----7-----7-----7-----7-| or sumbody playin guitar 1 then it sounds right 
D-------------------------| 
A-------------------------| 
D-------------------------| 
 
Interlude: 
 
Guitar 1 (lead notes): 
 
E----------------------------------------------| 
B----------------------------------------------| 
G-4~--4~--4-2-1-2-1--------4~--4~--4-2-1-2-1---| 
D-------------------4-2-0--------------------4-| 
A----------------------------------------------| 
D----------------------------------------------| 
 Then after playing this, guitar 1 goes and plays the chords below 
 along with guitarist no.2 except he varies his first chord like this: 
 
E-------------------    
B------------------- 
G-8-8-8-8-8-8-8-8-8- Also when guitar 2 is quietly backing the lead notes 
D-8-8-8-9-9-8-8-8-9- he also adds in a similar variation (listen out for it). 
A-6-6-6-6-6-6-6-6-6- 
D-6-6-6-6-6-6-6-6-6- 
 
Guitar 2 (Chords): 
 
E---------|---------|---------|---------|---------| 
B---------|---------|---------|---------|---------| 
G----8----|----9----|----7----|----6----|----4----| 
D----8----|----9----|----7----|----6----|----4----| 
A----6----|----7----|----5----|----4----|----2----| 
D----6----|----7----|----5----|----4----|----2----| 
 
Order: 
 
Intro 
Verse x2 
Chorus 
Verse 
Chorus 
Pre-interlude x2 
Interlude 
Pre-interlude x2 
Interlude (end) ends in  
E---| 
B---| 
G---| 
D-0-| 
A-0-| 
D-0-| 
 
Notes: Obviously where ive placed chords just once i dont mean play it once, i 
just mean thats the chord played however many times.In the intro and verse where 
ive put bar lines, they correspond to the bar lines on the harmonics (meaning play 
the harmonic tune so many times until it reaches the point where guitar 1 gets to the 
bar). 
 
Other: I hope that this tab helps u and makes u very happy. Bcos the moment 
i herd this song i wanted to lern it, but seen as no one had bothered to tab it 
i thought id do it. this tab is as close as i cud get and it close enuff for me. 
If u want to talk or need help, etc, my email is '[email protected]'. 
O and please dont paste this tab or any of my other tabs  to other sites sayin 
they r urs (somebody has alrdy copied my gelosea tab, he thinks he's clever... he is not). 
Thanks for reading 
                                     Haz 
 
share this page

See Also: