E-Chords
Inme

Creepcover(Tabs)

Inme

roll up this ad to continue

I saw InMe on recovered and this is their version of the song as it is different 
from the original, have fun. 
 
Intro x1: clean with a lot of phase and a flanger. 
E-------------------------------------------------------------------------------------------- 
B-------------------------------------------------------------------------------------------- 
G------5*---------5---------5*--------5-----------9*---------9-------9*------9--------- 
D---------5----------5---------5----------5-----------9----------9-------9--------9------ 
A------------5--------------------5-----------------------9------------------9------------- 
E---3-----------3---------3---------3-----------7-----------7-------7---------7---------- 
 
---------------------------------------------------------------------------------------------- 
---------------------------------------------------------------------------------------------- 
---10*-------------10----------10*------------10---------8*--------8------8*-----8---- 
--------10--------------10----------10-------------10--------8---------8------8------8-- 
-------------10--------------------------10----------------------8----------------8-------- 
8----------------8-----------8---------------8-----------8---------8-------8-------8------ 
 
Verse x2: same as intro. 
 
End of verse-chorus x2 : distortion 
E?xx---xx---xx?3333-----------------2222---------------------- 
B?xx---xx---xx?3333-----------------4444---4/5/4------------- 
G?xx---xx---xx?4444?4/5/4-----------4444----------4---------- 
D?xx---xx---xx?5555----------5------4444-------------4------- 
A?xx---xx---xx?5555------------5-3?-2222---------------2--- 
E?xx---xx---xx?3333--------------------------------------------- 
 
Interlude x1: distortion. Strum each chord a lot not fast like on the original listen 
to get timing. 
E----------------------------------------- 
B----------------------------------------- 
G---12-----7-----8------11----9-----10 
D----x-----x-----x------x-----x------x 
A---10-----5-----6------9-----7------8 
e----x-----x-----x------x-----x------x- 
Then play the chorus without the fiddly bit in between chords then strum down once on 
the first chorus chord and then back up just catching the 1st 3 strings. 
 
Go out and buy overgrown eden it is the best album this year. 
Saw InMe at the leadmill in Sheffield they kicked ass as did redefine ?elviss sucked. 
 
Intro x1 
Verse x2 
Chorus x2 
Verse x2 
Chorus x2 
Interlude x1 
 
*=let ring 
x=mute 
share this page

See Also: