E-Chords
Inme

C-l-f(Tabs)

Inme

roll up this ad to continue

nly version tabbed so far lol thi s sounds ace 2 me 
any comments, mods or anything.... contact me at [email protected] or add me, 
[email protected] 
This in my opinion is inmes best song yet... ENJOY!! 
 
Key 
c   = choke string 
/   = slide, please note this can be done by the bass player instead, either way z gd 
xx  = dampened notes 
... = palm muted 
*   = natural harmonics 
^   = bend up 
 
Intro Distrtion + With Midrange up on amp 
E|------------------------------------------------------------------------------------------| 
B|------------------------------------------------------------------------------------------| 
G|------------------------------------------------------------------------------------------| 
D|---333/5555/333------------------------------------------/Pickscrape----------------------| 
A|-----------------5c--0c---8c--0c--111/3333/111--1--0c---/Pickscrape---111/3333/111--------|   
D|----------------5c--5c---5c--5c----------------1--1----/pickscrape------------------------|    
 
{please note the 333/5555/333 + 111/3333/111 are strummed very fast} 
 
 
 
Next Part Of Intro Same Effects 
E|------------------------------------------------------------------------------------------| 
B|------------------------------------------------------------------------------------------| 
G|------------------------------|-----------------------------------------------------------| 
D|--5555c--5555c--5555c--5555c--|---333/5555/333-1-xx-1-xx-1-xx-1---------------------------| 
A|--5555c--5555c--5555c--5555c--|----------------0-xx-1-xx-0-xx-1--111/3333/111-------------| 
D|--5555c--5555c--5555c--5555c--|----------------1-xx-1-xx-1-xx-1---------------------------| 
                 
 
E|------------------------------------------------------------------------------------------| 
B|------------------------------------------------------------------------------------------| 
G|------------------------------------------------------------------------------------------| 
D|---5-5-5c--xx--5-5-5c--xx--5-5-5c--xx--5-5-5c--------------333/5555/333-------------------| 
A|---5-5-5c--xx--5-0-5c--xx--5-8-5c--xx--5-0-5c---------------------------------------------| 
D|---5-5-5c--xx--5-5-5c--xx--5-5-5c--xx--5-5-5c---------------------------------------------| 
 
 
Verse 1 distortion {Palm Muted 
E|------------------------------------------------------------------------------------------| 
B|------------------------------------------------------------------------------------------| 
G|------------------------------------------------------------------------------------------| 
D|-1-1-1-1-------1-1-0-3--------------------5-5-5-5----------5-5-3-5-3----------------------| 
A|-1-1-1-1-------1-1-0-3--------------------5-5-5-5----------5-5-3-5-3----------------------| 
D|-1-1-1-1-------1-1-0-3--------------------5-5-5-5----------5-5-3-5-3----------------------| 
   . . . .       . . . .                    . . . .          . . . . . 
 
            
E|------------------------------------------------------------------------------------------| 
B|------------------------------------------------------------------------------------------| 
G|------------------------------------------------------------------------------------------| 
D|-1-1-1-1--------------1-1-0-3------5-5-5-5---5-5-5-5---5-5-5-5---5-5-5--5-5-5-------------| 
A|-1-1-1-1--------------1-1-0-3------5-5-5-5---5-5-5-5---5-5-5-5---5-5-5--5-5-5-------------| 
D|-1-1-1-1--------------1-1-0-3------5-5-5-5---5-5-5-5---5-5-5-5---5-5-5--5-5-5-------------| 
   . . . .              . . . .      . . . .   . . . .   . . . .   . . .  . . . 
 
 
 Bridge Clean + Flanger                         |+++ Turn Distortion On 
E|------------------------------------------------|-----------------------------------------| 
B|------------------------------------------------|-----------------------------------------| 
G|------------------------------------------------|-----------------------------------------| 
D|-----7*-----4-----3-----5-3-2----7*-----4-----3-|--3-3--3-3--3-3--3-3---------------------| 
A|----7*-----4-----3--------------7*-----4-----3--|--3-3--3-3--3-3--3-3---------------------| 
D|---7*-----4-----3-------------7*------4-----3---|--3-3--3-3--3-3--3-3---------------------| 
                                                    . .  . .  . .  . . 
 
 
E|--------------------------| 
B|--------------------------| 
G|--------------------------| 
D|--3-xx-5-xx-6-xx-7--8--9--| 
A|--3-xx-5-xx-6-xx-7--8--9--| 
D|--3-xx-5-xx-6-xx-7--8--9--| 
 
 
Chorus Disrtion 
E|------------------------------------------------------------------------------------------| 
B|------------------------------------------------------------------------------------------| 
G|-----------------------------------------------------------8888-7777-9999^----------------| 
D|-9-9-9-9--9-9-9-9--9-9-9-9------7--5--5-5-5-5--5-5-5-5------------------------------------| 
A|-9-9-9-9--9-9-9-9--9-9-9-9------7--5--5-5-5-5--5-5-5-5------------------------------------| 
D|-9-9-9-9--9-9-9-9--9-9-9-9--11--7--5--5-5-5-5--5-5-5-5------------------------------------| 
 
E|------------------------------------------------------------------------------------------| 
B|------------------------------------------------------------------------------------------| 
G|-----------------------------------------------------------8888-7777-9999^----------------| 
D|-9--9-9-9-9--9-9-9-9--9-9-9-9------7--5--5-5-5-5--5-5-5-5---------------------------------| 
A|-9--9-9-9-9--9-9-9-9--9-9-9-9------7--5--5-5-5-5--5-5-5-5---------------------------------| 
D|-9--9-9-9-9--9-9-9-9--9-9-9-9--11--7--5--5-5-5-5--5-5-5-5---------------------------------| 
 
E|------------------------------------------------------------------------------------------| 
B|------------------------------------------------------------------------------------------| 
G|------------------------------------------------------------------------------------------| 
D|-9--9-9-9-9--9-9-9-9--9-9-9-9------7--5--5-5-5-5--5-5-5-5--5-5-5-5--5-xx-5-xx-5-xx-5-5-5C-| 
A|-9--9-9-9-9--9-9-9-9--9-9-9-9------7--5--5-5-5-5--5-5-5-5--5-5-5-5--5-xx-5-xx-5-xx-5-5-5c-| 
D|-9--9-9-9-9--9-9-9-9--9-9-9-9--11--7--5--5-5-5-5--5-5-5-5--5-5-5-5--5-xx-5-xx-5-xx-5-5-5c-| 
 
 
Extra Bit (Pre Verse 2 Kinda Thing) 
E|------------------------------------------------------------------------------------------| 
B|------------------------------------------------------------------------------------------| 
G|------------------------------------------------------------------------------------------| 
D|-------------/Pickscrape-----333/555/333/0------------------------------------------------| 
A|---1c--0c----/Pickscrape------------------------------------------------------------------| 
D|-1c--1c------/Pickscrape------------------------------------------------------------------| 
 
 
Verse Two Distorted  {Palm Muted}           
E|--------------------------------------------------------------------------------------------| 
B|--------------------------------------------------------------------------------------------| 
G|--------------------------------------------------------------------------------------------| 
D|-1-1-1-1--1-1-1-1--1-1-1-1--1-1-1-1--1-1--0-0--1-1--3-3--5-5-5-5--5-5-5-5--5-5-5-5--5-5-5-5-| 
A|-1-1-1-1--1-1-1-1--1-1-1-1--1-1-1-1--1-1--0-0--1-1--3-3--5-5-5-5--5-5-5-5--5-5-5-5--5-5-5-5-| 
D|-1-1-1-1--1-1-1-1--1-1-1-1--1-1-1-1--1-1--0-0--1-1--3-3--5-5-5-5--5-5-5-5--5-5-5-5--5-5-5-5-| 
   . . . .  . . . .  . . . .  . . . .  . .  . .  . .  . .  . . . .  . . . .  . . . .  . . . .  
 
       
E|--------------------------------------------------------------------------------------------| 
B|--------------------------------------------------------------------------------------------| 
G|--------------------------------------------------------------------------------------------| 
D|-5-5--3-3--5-5--3-3--1-1-1-1--1-1-1-1--1-1-1-1--1-1-1-1--1-1--0-0--1-1--3-3-----------------| 
A|-5-5--3-3--5-5--3-3--1-1-1-1--1-1-1-1--1-1-1-1--1-1-1-1--1-1--0-0--1-1--3-3-----------------| 
D|-5-5--3-3--5-5--3-3--1-1-1-1--1-1-1-1--1-1-1-1--1-1-1-1--1-1--0-0--1-1--3-3-----------------| 
   . .  . .  . .  . .  . . . .  . . . .  . . . .  . . . .  . .  . .  . .  . . 
 
 
 
E|--------------------------------------------------------------------------------------------| 
B|--------------------------------------------------------------------------------------------| 
G|--------------------------------------------------------------------------------------------| 
D|-5-5-5-5--5-5-5-5--5-5-5-5--5-5-5-5---5-5-5--5-5-5------------------------------------------| 
A|-5-5-5-5--5-5-5-5--5-5-5-5--5-5-5-5---5-5-5--5-5-5------------------------------------------| 
D|-5-5-5-5--5-5-5-5--5-5-5-5--5-5-5-5---5-5-5--5-5-5------------------------------------------| 
   . . . .  . . . .  . . . .  . . . .   . . .  . . . 
 
 
Bridge Clean + Flanger                    |++++++Turn Distortion On Now 
E|------------------------------------------|---------------------------------------------------| 
B|------------------------------------------|---------------------------------------------------| 
G|------------------------------------------|---------------------------------------------------| 
D|----7*-----4-----3-----5-3-2-----7*-----4-|-3-3--3-3--3-3--3-3--3-3-3-3-3--3-3-3-3-3--3-3-3-3-| 
A|---7*-----4-----3--------------7*------4--|-3-3--3-3--3-3--3-3--3-3-3-3-3--3-3-3-3-3--3-3-3-3-| 
D|--7*-----4-----3-------------7*-------4---|-3-3--3-3--3-3--3-3--3-3-3-3-3--3-3-3-3-3--3-3-3-3-| 
                                              . .  . .  . .  . .  . . . . .  . . . . .  . . . . 
  
 
Heavy Bridge Distortion 
E|-----------------------------------------------------------------------------| 
B|-----------------------------------------------------------------------------| 
G|-------------------------------6-6-7-8---------------------------------------| 
D|-7--7-7-7-7--7-7-7-4--4-4-4-4-----------3--3-3-3-3--3-3-3-3--3-3-3-3--3--5---| 
A|-7--7-7-7-7--7-7-7-4--4-4-4-4-----------3--3-3-3-3--3-3-3-3--3-3-3-3--3--5---| 
D|-7--7-7-7-7--7-7-7-4--4-4-4-4-----------3--3-3-3-3--3-3-3-3--3-3-3-3--3--5---| 
 
E|-----------------------------------------------------------------------------| 
B|-----------------------------------------------------------------------------| 
G|-----------------------------------------------------------------------------| 
D|-7--7-7-7-7--7-7-7-4--4-4-4-4--4-4-4-3--3-3-3-3--3-3-3--3-xx-5-xx-6-xx-7-8-9-| 
A|-7--7-7-7-7--7-7-7-4--4-4-4-4--4-4-4-3--3-3-3-3--3-3-3--3-xx-5-xx-6-xx-7-8-9-| 
D|-7--7-7-7-7--7-7-7-4--4-4-4-4--4-4-4-3--3-3-3-3--3-3-3--3-xx-5-xx-6-xx-7-8-9-| 
 
 
Chorus Distortion 
 
E|------------------------------------------------------------------------------------------| 
B|------------------------------------------------------------------------------------------| 
G|-----------------------------------------------------------8888-7777-9999^----------------| 
D|-9--9-9-9-9--9-9-9-9--9-9-9-9------7--5--5-5-5-5--5-5-5-5---------------------------------| 
A|-9--9-9-9-9--9-9-9-9--9-9-9-9------7--5--5-5-5-5--5-5-5-5---------------------------------| 
D|-9--9-9-9-9--9-9-9-9--9-9-9-9--11--7--5--5-5-5-5--5-5-5-5---------------------------------| 
 
 
E|------------------------------------------------------------------------------------------| 
B|------------------------------------------------------------------------------------------| 
G|-----------------------------------------------------------8888-7777-9999^----------------| 
D|-9--9-9-9-9--9-9-9-9--9-9-9-9------7--5--5-5-5-5--5-5-5-5---------------------------------| 
A|-9--9-9-9-9--9-9-9-9--9-9-9-9------7--5--5-5-5-5--5-5-5-5---------------------------------| 
D|-9--9-9-9-9--9-9-9-9--9-9-9-9--11--7--5--5-5-5-5--5-5-5-5---------------------------------| 
 
 
E|------------------------------------------------------------------------------------------| 
B|------------------------------------------------------------------------------------------| 
G|-----------------------------------------------------------8888-7777-9999^----------------| 
D|-9--9-9-9-9--9-9-9-9--9-9-9-9------7--5--5-5-5-5--5-5-5-5---------------------------------| 
A|-9--9-9-9-9--9-9-9-9--9-9-9-9------7--5--5-5-5-5--5-5-5-5---------------------------------| 
D|-9--9-9-9-9--9-9-9-9--9-9-9-9--11--7--5--5-5-5-5--5-5-5-5---------------------------------| 
 
 
E|------------------------------------------------------------------------------------------| 
B|------------------------------------------------------------------------------------------| 
G|------------------------------------------------------------------------------------------| 
D|-9--9-9-9-9--9-9-9-9--9-9-9-9------7--5--5-5-5-5--5-5-5-5--5-5-5-5--5-xx-5-xx-5-xx-5-5-5C-| 
A|-9--9-9-9-9--9-9-9-9--9-9-9-9------7--5--5-5-5-5--5-5-5-5--5-5-5-5--5-xx-5-xx-5-xx-5-5-5c-| 
D|-9--9-9-9-9--9-9-9-9--9-9-9-9--11--7--5--5-5-5-5--5-5-5-5--5-5-5-5--5-xx-5-xx-5-xx-5-5-5c-| 
 
 
Extended Bit distortion 
E|------------------------------------------------------------------------------------------| 
B|------------------------------------------------------------------------------------------| 
G|------------------------------------------------------------------------------------------| 
D|-------------------------333/5555/333-----------------------------------------------------| 
A|---1c---0c-----5c--0c---------------------------------------------------------------------| 
D|-1c--1c------5c--5c-----------------------------------------------------------------------| 
 
 
Clean + Flanger 
E|-----------7---------7--------7---------7------------| 
B|---------6---6-----6---6----6---6-----6--6-----------| 
G|------5----------5--------5---------5----------------| 
D|-----------------------------------------------------| 
A|-----------------------------------------------------| 
D|-----------------------------------------------------| 
 
 
Chorus Distortion  
 
E|------------------------------------------------------------------------------------------| 
B|------------------------------------------------------------------------------------------| 
G|-----------------------------------------------------------8888-7777-9999^----------------| 
D|-9--9-9-9-9--9-9-9-9--9-9-9-9------7--5--5-5-5-5--5-5-5-5---------------------------------| 
A|-9--9-9-9-9--9-9-9-9--9-9-9-9------7--5--5-5-5-5--5-5-5-5---------------------------------| 
D|-9--9-9-9-9--9-9-9-9--9-9-9-9--11--7--5--5-5-5-5--5-5-5-5---------------------------------| 
 
 
E|------------------------------------------------------------------------------------------| 
B|------------------------------------------------------------------------------------------| 
G|-----------------------------------------------------------8888-7777-9999^----------------| 
D|-9--9-9-9-9--9-9-9-9--9-9-9-9------7--5--5-5-5-5--5-5-5-5---------------------------------| 
A|-9--9-9-9-9--9-9-9-9--9-9-9-9------7--5--5-5-5-5--5-5-5-5---------------------------------| 
D|-9--9-9-9-9--9-9-9-9--9-9-9-9--11--7--5--5-5-5-5--5-5-5-5---------------------------------| 
 
 
E|------------------------------------------------------------------------------------------| 
B|------------------------------------------------------------------------------------------| 
G|-----------------------------------------------------------8888-7777-9999^----------------| 
D|-9--9-9-9-9--9-9-9-9--9-9-9-9------7--5--5-5-5-5--5-5-5-5---------------------------------| 
A|-9--9-9-9-9--9-9-9-9--9-9-9-9------7--5--5-5-5-5--5-5-5-5---------------------------------| 
D|-9--9-9-9-9--9-9-9-9--9-9-9-9--11--7--5--5-5-5-5--5-5-5-5---------------------------------| 
 
 
E|------------------------------------------------------------------------------------------| 
B|------------------------------------------------------------------------------------------| 
G|------------------------------------------------------------------------------------------| 
D|-9--9-9-9-9--9-9-9-9--9-9-9-9------7--5--5-5-5-5--5-5-5-5--5-5-5-5--5-xx-5-xx-5-xx-5-5-5C-| 
A|-9--9-9-9-9--9-9-9-9--9-9-9-9------7--5--5-5-5-5--5-5-5-5--5-5-5-5--5-xx-5-xx-5-xx-5-5-5c-| 
D|-9--9-9-9-9--9-9-9-9--9-9-9-9--11--7--5--5-5-5-5--5-5-5-5--5-5-5-5--5-xx-5-xx-5-xx-5-5-5c-| 
 
 
End On 
 
E|-------------------------| 
B|-------------------------| 
G|-------------------------| 
D|-1c-1c--1c-1c------------| 
A|-1c-1c--0c-0c------------| 
D|-1c-1c--1c-1c------------| 
 
 
 
 
 
This is isnt the album version tab as are all the others so parts are different but not wrong! 
Where theres a 'c' after a note, this means to chocke the string i.e. stop it from ringing out! 
You can do this by releasing pressure on your fretting hand!  
This is easily InMe's Best song (in my opinion anyway) and it isnt they're easiest either!! 
 
 
During the chorus, Dave plays a second guitar over the lead and i have tabbed the second guitars 
Notes below....... 
 
 
E|--------------------------------------------------------------------------| 
B|--------------------------------------------------------------------------| 
G|--------------------------------------------------------------------------| 
D|-9--9-9-9-9--9-9-9-9--9-9-9-9------7--5--5-5-5-5--5-5-5-5--5-5-5-5--7--9--| 
A|-9--9-9-9-9--9-9-9-9--9-9-9-9------7--5--5-5-5-5--5-5-5-5--5-5-5-5--7--9--| 
D|-9--9-9-9-9--9-9-9-9--9-9-9-9--11--7--5--5-5-5-5--5-5-5-5--5-5-5-5--7--9--| 
                                                            
                                                                           
E|--------------------------------------------------------------------------| 
B|--------------------------------------------------------------------------| 
G|--------------------------------------------------------------------------| 
D|-9--9-9-9-9--9-9-9-9--9-9-9-9------7--5--5-5-5-5--5-5-5-5--5-5-5-5--7--9--| 
A|-9--9-9-9-9--9-9-9-9--9-9-9-9------7--5--5-5-5-5--5-5-5-5--5-5-5-5--7--9--| 
D|-9--9-9-9-9--9-9-9-9--9-9-9-9--11--7--5--5-5-5-5--5-5-5-5--5-5-5-5--7--9--| 
 
                                                                           
E|--------------------------------------------------------------------------| 
B|--------------------------------------------------------------------------| 
G|--------------------------------------------------------------------------| 
D|-9--9-9-9-9--9-9-9-9--9-9-9-9------7--5--5-5-5-5--5-5-5-5--5-5-5-5--7--9--| 
A|-9--9-9-9-9--9-9-9-9--9-9-9-9------7--5--5-5-5-5--5-5-5-5--5-5-5-5--7--9--| 
D|-9--9-9-9-9--9-9-9-9--9-9-9-9--11--7--5--5-5-5-5--5-5-5-5--5-5-5-5--7--9--| 
 
E|--------------------------------------------------------------------------| 
B|--------------------------------------------------------------------------| 
G|--------------------------------------------------------------------------| 
D|-9--9-9-9-9--9-9-9-9--9-9-9-9------7-5--5-5-5-5--5-5-5--5xx5xx5xx5--------| 
A|-9--9-9-9-9--9-9-9-9--9-9-9-9------7-5--5-5-5-5--5-5-5--5xx5xx5xx5--------| 
D|-9--9-9-9-9--9-9-9-9--9-9-9-9---11-7-5--5-5-5-5--5-5-5--5xx5xx5xx5--------| 
 
And if any other tosser feels the need to steal this tab, 
dont bother aight, word 
 
Marsey 
 
 
 
Tabber ? Podg69 
share this page

See Also: