E-Chords
Iggy Pop

Louie Louie(Tabs)

Iggy Pop

Intro : 
                             
e|-------|---------------------------|--------------------x-------------------| 
B|-------|--------------x------------|----------------x---x----x--------------| 
G|--13s--|--8--8--8-----x--13-13-x---|--13s15--15-15--x---x----x---13-13-13s--| 
D|--13s--|--8--8--8-----x--13-13-x---|--13s15--15-15--x--------x---13-13-13s--| 
A|--11s--|--6--6--6--x--x--11-11-x---|--11s13--13-13--x--------x---11-11-11s--| 
E|-------|-----------------------x---|----------------------------------------| 

e|---------------------------|--------------------x-------------------| 
B|---------------------------|----------------x---x----x--------------| 
G|--8--8--8--------13-13-----|--13s15--15-15--x---x----x---13-13-13s--| 
D|--8--8--8--------13-13-----|--13s15--15-15--x--------x---13-13-13s--| 
A|--6--6--6--------11-11-----|--11s13--13-13--x--------x---11-11-11s--| 
E|---------------------------|----------------------------------------| x3 


Chorus : 

e|---------------------------|--------------------x-------------------| 
B|---------------------------|----------------x---x----x--------------| 
G|--8--8--8--------13-13-----|--13s15--15-15--x---x----x---13-13-13s--| 
D|--8--8--8--------13-13-----|--13s15--15-15--x--------x---13-13-13s--| 
A|--6--6--6--------11-11-----|--11s13--13-13--x--------x---11-11-11s--| 
E|---------------------------|----------------------------------------| x4 


Verses :  

e|----------------------------|--------------------------------x-------------------| 
B|----------------------------|--------------------------------x--x-----x----------| 
G|--8--------8--13-------13---|--15----------------15----13----x--x--13-x--13s-----|  
D|--8--------8--13-------13---|--15----------------15----13----x--x--13-x--13s-----| 
A|--6--------6--11-------11---|--13----------------13----11----------11----11s-----| 
E|----------------------------|----------------------------------------------------| x4 


verse 3 : 

e|----------------------------|--------------------------------x-------------------| 
B|----------------------------|--------------------------------x--x-----x----------| 
G|--8--------8--13-------13---|--15----------------15----13----x--x--13-x--13s-----|  
D|--8--------8--13-------13---|--15----------------15----13----x--x--13-x--13s-----| 
A|--6--------6--11-------11---|--13----------------13----11----------11----11s-----| 
E|----------------------------|----------------------------------------------------|   

e|------------------------------------------------|--------------------------------------------| 
B|------------------------------------------------|--------------------------------------------| 
G|--------------8-----------------------13--------|--------------------------------------------| 
D|--------------8-----------------------13--------|------------15M---13M------------11---------| 
A|--6L----6M----------6M----11M---------------11--|--13M-------13M---11M---13-11-13----13-11---| 
E|------------------------------------------------|--------------------------------------------| x7 



Outro : 

e|-------------------------------------|--------------------x-------------------| 
B|-------------------------------------|----------------x---x----x--------------| 
G|--8-------8--8-----8--13---13-13--13-|--13s15--15-15--x---x----x---13-13-13s--| 
D|--8-------8--8--8--8--13---13-13--13-|--13s15--15-15--x--------x---13-13-13s--| 
A|--6-------6--6--6--6--11---11-11--11-|--11s13--13-13--x--------x---11-11-11s--| 
E|-------------------------------------|----------------------------------------| x8 

e|--------- 
B|--------- 
G|--8------ 
D|--8------ 
A|--6------ 
E|--------- 



Solo : 

E |--------11-11-11-11-11-11-10L------10b11-11-11-11---| 
B |--------11-11-11-11-11-11-------------11-11-11-11---| 
G |--x--------------------------------x----------------| 
D |--x--------------------------------x----------------| 
A |-----------------------------------x----------------| 
E |----------------------------------------------------| 

--11-11-10L---10b---11-11-11-11-11-11-10L------10b--| 
--11-11-------------11-11-11-11-11-11---------------| 
----------------------------------------------------| 
----------------------------------------------------| 
----------------------------------------------------| 
----------------------------------------------------| 


--11-11-10b---------11-11-10b---------11-11-10L-----| 
--11-11-------------11-11-------------11-11---------| 
----------------------------------------------------| 
----------------------------------------------------| 
----------------------------------------------------| 
----------------------------------------------------| 


--10b---11-11-10b---------11b---------11b-----------| 
--------11-11-------------------11-11---------------| 
----------------------------------------------------| 
----------------------------------------------------| 
----------------------------------------------------| 
----------------------------------------------------| 


--10-10-11-11---------------------------------------| 
--------------11-11---------------------------------| 
--------------------11-11-11b-----------------------| 
--------------------------------11-8--11-8--6-------| 
----------------------------------------------------| 
----------------------------------------------------| 


--10-10-11-11---------------------------------------| 
--------------11-11---------------------------------| 
--------------------11-11-11b-----------------------| 
--------------------------------11-8--11-8--6-------| 
----------------------------------------------------| 
----------------------------------------------------| 


--10-11-10------------------------------------------| 
-----------11-11----------------------------11------| 
-----------------11-8-------------------------------| 
-----------------------11-13-11~--------------------| 
----------------------------------------------------| 
----------------------------------------------------| 


--------11-11-11-------10b------10b------11---------| 
--10-11-11-11-11-10-11----10-11----10-11-11---------| 
----------------------------------------------------| 
----------------------------------------------------| 
----------------------------------------------------| 
----------------------------------------------------| 


----------------------------------------------------| 
--11----13b---------13b---------13b---11----11------| 
-----------------------------------------11---------| 
----------------------------------------------------| 
----------------------------------------------------| 
----------------------------------------------------| 


----------------------------------------------------| 
--11----13b---------13b---------13b---13b---11-11---| 
----------------------------------------------------| 
----------------------------------------------------| 
----------------------------------------------------| 
----------------------------------------------------| 


----------------------------| 
--16b---16b---16b16b16b-----| 
----------------------------| 
----------------------------| 
----------------------------| 
----------------------------| 


----------------------------------------------------| 
-----19-18-16----------------19-18-16---------------| 
--x-----------19-18-16----------------19-18-16------| 
-----------------------19-x--------------------19---| 
----------------------------------------------------| 
----------------------------------------------------| 


----------------------------| 
--19b19b16----19b19b16------| 
-----------19----------19---| 
----------------------------| 
----------------------------| 
----------------------------| 


----------------------------------------------------| 
--19-18-16------------------------------------------| 
-----------19-18-16-18-19-16-19---------------------| 
----------------------------------------------------| 
----------------------------------------------------| 
----------------------------------------------------| 

roll up this ad to continue

share this page

See Also: