E-Chords
Iggy Pop

Johanna(Tabs)

Iggy Pop

Key: A
Iggy Pop & James Williamson - Johannna 

Intro  
Intro A  
e|--------0-----------------------| 
B|--------0-----------------------| 
G|--------0-----------------------| 
D|--------2-----------------------| 
A|--------2---------------------0-| 
E|0---0---------------------0-3---| 
 |x-------x-------x-------x-------| 

e|----------------2---------------| 
B|----------------3-------2-------| 
G|--------0-------2-------2-------| 
D|--------0-------0-------2-------| 
A|----2-------------------0-------| 
E|3-------------------------------| 
 |x-------x-------x-------x-------| x3 

Intro B 
e|--------0-----------------------| 
B|--------0-----------------------|  
G|--------0-----------------------| 
D|--------2-----------------------| 
A|--------2---------------------0-| 
E|0---0---------------------0-3---| 
 |x-------x-------x-------x-------| 

e|--------------------------------| 
B|3-----3-3-------3-----3-3-------| 
G|2-----2-2-0-----4-----4-4-0-----| 
D|0-----0-0-0-----4-----4-4-0-----| 
A|----------2-----2-----2-2-2-----| 
E|----------3---------------3-----| 
 |x-------x-------x-------x-------|  


Main riff 
Main riff A 
e|--------0-----0-d-----0---------| 
B|--------0-----0-d-----0---------| the ds mean dampen the strings with  
G|--------0-----0-d-----0---------| your left hand, don?t know the proper 
D|--------2-------d-----2---------| way to tab it out but you?ll hear what  
A|--------2-------d-----2-------0-| I mean listening to it 
E|0---0-----------d---------0-3---| 
 |x-------x-------x-------x-------| 

e|--------------------------------| 
B|--------------------------------| H = hammer on 0h2 
G|H-------------------------------| bend the longer notes that hit on the 
D|2---0---0-----------------------| x beats up a quarter tone. Light palm 
A|------2-----2-0-2---0---0---0-2-| mute. 
E|----------------------3---3-----|  
 |x-------x-------x-------x-------| x 5 

Main riff B 
e|--------0-----0-d-----0---------| 
B|--------0-----0-d-----0---------|  
G|--------0-----0-d-----0---------|  
D|--------2-------d-----2---------|   
A|--------2-------d-----2-------0-|  
E|0---0-----------d---------0-3---| 
 |x-------x-------x-------x-------| 

e|--------------------------------| 
B|3-----3-3-------3-----3-3-------| 
G|2-----2-2-0-----4-----4-4-0-----| 
D|0-----0-0-0-----4-----4-4-0-----| 
A|----------2-----2-----2-2-2-----| 
E|----------3---------------3-----| 
 |x-------x-------x-------x-------|  


Coda 
Coda A 
3/4 time 

Guitar part 
e|------------------------| 
B|------------------------| 
G|------------------------| 
D|------------------------| 
A|------------------------| 
E|0-----0-----0-----0-----| 
 |x-----x-----x-----x-----|  

Piano part 

e|------------------------| 
B|------------------------| 
G|97----------------------| 
D|---9-/75----------------| 
A|---------7-/75----------| 
E|---------------7-/53-0--| 
 |x-----x-----x-----x-----|  

Coda B  
4/4 time 

e|--------------------------------| 
B|3-----3-3-------3-----3-3-------| 
G|2-----2-2-0-----4-----4-4-0-----| 
D|0-----0-0-0-----4-----4-4-0-----| 
A|----------2-----2-----2-2-2-----| 
E|----------3---------------3-----| 
 |x-------x-------x-------x-------| x2 

Intro                                                  0:00 - 0:25 
Main riff                                              0:25 - 1:01    
Main riff                                              1:01 - 1:35 
Solo (band plays chords from main riff - you go nuts)  1:35 - 2:11 
Shortened main riff (3xA 1xB)                          2:11 - 2:34 
Coda x4                                                2:34 - 3:15 
Coda A to finish                                       3:15 - end 

roll up this ad to continue

share this page

See Also: