E-Chords
Iggy Pop

Innocent World guitar-bass(Tabs)

Iggy Pop

Key: D
Verse 
 
Guitar 
----------------------- 
----------------------- 
----------------------- 
-9-7-5-7-9-7----------- 
-7-5-3-5-7-5----------- 
----------------------- 
Bass 
----------------------- 
----------------------- 
-7-5-3-5-7-5----------- 
----------------------- 
Chorus 
 
D         F        A#      C 
Innocent Innocent Innocent World 
D         F        A#      C 
Innocent Innocent Innocent World 
D         F        A#      C 
Innocent Innocent Innocent World 
D         F        A#      C 
Innocent Innocent Innocent World 
 
After Chorus 
 
Guitar 
----------------------- x3 ----------------------- x1 
-----------------------    ----------------------- 
-----------------------    ----------------------- 
-----------------------    --------------(1)(3)--- 
-5-6-6-6-5-3-3-(1)-----    -5-6-6-6-5-3-3--------- 
-----------------------    ----------------------- 
 
No Bass 
  
Enjoy 

roll up this ad to continue

share this page

See Also: