E-Chords
Iggy Pop

I'm Sick Of You(Tabs)

Iggy Pop

Key: Em
 
  
  Riff 1:       
    Em              Asus4                    
E |-----------0-----------0----|     
B |--------0-----0-----3-------|    
G |-----0-----------2----------|     
D |--2-------------------------|     
A |----------------------------|     
E |----------------------------|    


verse 1 & 2 
    D           Em               C                   Riff 1 x4 
E |----------------------------|----------------||    
B |--------3-----------0-------|----------------|| 
G |-----------------0----------|--------0-------|| 
D |--0--------0--2-------------|-----2----------|| 
A |----------------------------|--3-------------|| 
E |----------------------------|----------------||                  x2 




    D           Em               C                    
E |----------------------------|----------------|  
B |--------3-----------0-------|----------------| 
G |-----------------0----------|--------0-------| 
D |--0--------0--2-------------|-----2----------| 
A |----------------------------|--3-------------| 
E |----------------------------|----------------|                
  
   A5                         A5    C              A5            Riff 1 x4 
|----------------------------|----|----------------------------| 
|----------------------------|----|----------------------------| 
|--------2-----2--------2----|----|--------0-----0--------2----| 
|-----2-----2--------2-------|-%--|-----2-----2--------2-------| 
|--0--------------0----------|----|--3--------------0----------| 
|----------------------------|----|----------------------------| 


Bridge 1 :                                                                           
C                            A5                            Riff 1 x4                      
---------------------------|----------------------------|  
---------------------------|----------------------------| 
-------0--------0----------|--------2--------2----------| 
----2-----2--------2-------|-----2-----2--------2-------| 
-3--------------------3----|--0-------------------------| 
---------------------------|----------------------------|              x2 


  C                                                              
|----------------------------| 
|----------------------------| 
|--------0--------0----------| 
|-----2-----2--------2-------| 
|--3--------------------3----| 
|----------------------------| 

 D                           A5                             B5                  
----------------------------|----------------------------|----------|-------| 
--------3--------------3----|----------------------------|----------|-------| 
-----2-----2--------2-------|--------2--------2----------|--4-------|-------| 
--0--------------0----------|-----2-----2--------2-------|--4-------|-------| 
----------------------------|--0-------------------------|--2-------|-------| 
----------------------------|----------------------------|----------|-------| 

                                                     
 Riff 2: 
|-------------------------------| 
|-------------------------------| 
|-------9--9----7-7-6-6-5-5-4-3-| 
|--9----9--9--------------------| 
|--7----7--7--------------------| 
|-------------------------------| 

 verse 3 & 4 
  D5         E5                C5               Riff 2  x4                            
----------------------------|----------------| 
----------------------------|----------------| 
--------7--7----------------|--5--5--5--5----| 
--7-----7--7--2-----2--2----|--5--5--5--5----| 
--5-----5--5--2-----2--2----|--3--3--3--3----| 
--------------0-----0--0----|----------------|                x2 

                                                     
  D5         E5                C5               A5                         A5            
----------------------------|----------------|----------------------------|----| 
----------------------------|----------------|----------------------------|----| 
--------7--7----------------|--5--5--5--5----|----------------------------|----| 
--7-----7--7--2-----2--2----|--5--5--5--5----|--7--7--7--7--7--7--7--7----|-%--| 
--5-----5--5--2-----2--2----|--3--3--3--3----|--7--7--7--7--7--7--7--7----|----| 
--------------0-----0--0----|----------------|--5--5--5--5--5--5--5--5----|----| 

 C5                           A5                                                          
----------------------------|----------------------------| 
----------------------------|----------------------------| 
--5--5--5--5--5--5--5--5----|----------------------------| 
--5--5--5--5--5--5--5--5----|--7--7--7--7--7--7--7--7----| 
--3--3--3--3--3--3--3--3----|--7--7--7--7--7--7--7--7----| 
----------------------------|--5--5--5--5--5--5--5--5----| 

  

                                                
Bridge 2 : 
 C5                          A5                            Riff 2 x2                      
---------------------------|----------------------------| 
---------------------------|----------------------------| 
-5--5--5--5--5--5--5--5----|----------------------------| 
-5--5--5--5--5--5--5--5----|--7--7--7--7--7--7--7--7----| 
-3--3--3--3--3--3--3--3----|--7--7--7--7--7--7--7--7----| 
---------------------------|--5--5--5--5--5--5--5--5----|            x2 

                                                           

 C5                          D5                            Riff 2 x2                      
---------------------------|----------------------------| 
---------------------------|----------------------------| 
-5--5--5--5--5--5--5--5----|--7--7--7--7--7--7--7--7----| 
-5--5--5--5--5--5--5--5----|--7--7--7--7--7--7--7--7----| 
-3--3--3--3--3--3--3--3----|--5--5--5--5--5--5--5--5----| 
---------------------------|----------------------------| 

  A5                          B5                              
----------------------------|----------|-------| 
----------------------------|----------|-------| 
----------------------------|--4-------|-------| 
--7--7--7--7--7--7--7--7----|--4-------|-------| 
--7--7--7--7--7--7--7--7----|--2-------|-------| 
--5--5--5--5--5--5--5--5----|----------|-------| 

                                                     
Solo 



Break : 
  E5                            B5                              
----------------------------|----------------------------| 
----------------------------|----------------------------| 
--9--9--9--9--9--9--9--9----|--4--4--4--4--4--4--4--4----| 
--9--9--9--9--9--9--9--9----|--4--4--4--4--4--4--4--4----| 
--7--7--7--7--7--7--7--7----|--2--2--2--2--2--2--2--2----| 
----------------------------|----------------------------| 

  C5                           A5                              
----------------------------|----------------------------| 
----------------------------|----------------------------| 
--5--5--5--5--5--5--5--5----|----------------------------| 
--5--5--5--5--5--5--5--5----|--7--7--7--7--7--7--7--7----| 
--3--3--3--3--3--3--3--3----|--7--7--7--7--7--7--7--7----| 
----------------------------|--5--5--5--5--5--5--5--5----| 

  C5                           D5                               
----------------------------|----------------------------| 
----------------------------|----------------------------| 
--5--5--5--5--5--5--5--5----|--7--7--7--7--7--7--7--7----| 
--5--5--5--5--5--5--5--5----|--7--7--7--7--7--7--7--7----| 
--3--3--3--3--3--3--3--3----|--5--5--5--5--5--5--5--5----| 
----------------------------|----------------------------| 

 A5                            B5                         
---------------------------||----------------|-------| 
---------------------------||----------------|-------| 
o-------------------------o||--4-------------|-------| 
o-7--7--7--7--7--7--7--7--o||--4-------------|-------| 
--7--7--7--7--7--7--7--7---||--2-------------|-------| 
--5--5--5--5--5--5--5--5---||----------------|-------| 


Outro : 
 A5                            A5                          C       A5      
----------------------------|----------------------------|-------|-------| 
----------------------------|----------------------------|-------|-------| 
--------2-----2--------2----|--------2-----2--------2----|--0----|--2----| 
-----2-----2--------2-------|-----2-----2--------2-------|--2----|--2----| 
--0--------------0----------|--0--------------0----------|--3----|--0----| 
----------------------------|----------------------------|-------|-------| 

 Em 
--0----| 
--0----| 
--0----| 
--2----| 
--2----| 
--0----| 

roll up this ad to continue

share this page

See Also: