E-Chords
Iggy Pop

Gimme Danger(Tabs)

Iggy Pop

Key: E5
Intro: 

(Essa ť a primeira parte, a outra ť igual a do verso1) 

      E5         D          C          A9 
e|-----0-----|---2----|-----0------|-----0--| 
B|-------0---|-3------|-------1----|-----0--| 
G|---------0-|-2------|--0------0--|--2-----| 
D|--2--------|-0------|--2---------|--2-----| 
A|--2--------|------0-|--3---------|--0-----| 
E|--0--------|--------|------------|--------| 

Verso1: 

     E5      G5     C5          E5      G5     C5     
e|---------------------------|---------------------------| 
B|-------------------------1-|-------------------------1-| 
G|-----------------------0---|-----------------------0---| 
D|--2--2--2--------0---2-----|--2--2--2--------0---2-----| 
A|--2--2--2----------3-------|--2--2--2----------3-------| 
E|--0--3--0--0-0-3-----------|--0--3--0--0-0-3-----------| 
  
Verso2: 

      D5          D5          E5        E5    
e|-----2-----|-----2-----|----0-----|----0-----| 
B|--3----3---|--3----3---|------0---|------0---| 
G|--2------2-|--2------2-|--------0-|--------0-| 
D|--0--------|--0--------|--2-------|--2-------| 
A|-----------|-----------|--2-------|--2-------| 
E|-----------|-----------|--0-------|--0-------| 

      C5         C5         A5        A5 
e|----0-----|----0-----|----0-----|----0-----| 
B|------1---|------1---|------0---|------0---| 
G|--------0-|--------0-|--2-----2-|--2-----2-| 
D|--2-------|--2-------|--2-------|--2-------| 
A|--3-------|--3-------|--0-------|--0-------| 
E|--3-------|--3-------|----------|----------| 

  
    D5          E5        C5         A5 
e|----2-----|----0-----|----0-----|----0-----| 
B|--3---3---|------0---|------1---|------0---| 
G|--2-----2-|--------0-|--------0-|--2-----2-| 
D|--0-------|--0-------|--2-------|--2-------| 
A|----------|--2-------|--3-------|--0-------| 
E|----------|--0-------|--3-------|----------| 


Verso3: 

     E5      G5     C5          E5      G5     C5     
e|---------------------------|---------------------------| 
B|-------------------------1-|-------------------------1-| 
G|-----------------------0---|-----------------------0---| 
D|--2--2--2--------0---2-----|--2--2--2--------0---2-----| 
A|--2--2--2----------3-------|--2--2--2----------3-------| 
E|--0--3--0--0-0-3-----------|--0--3--0--0-0-3-----------| 

Verso4: 

      D5          D5          E5        E5    
e|-----2-----|-----2-----|----0-----|----0-----| 
B|--3----3---|--3----3---|------0---|------0---| 
G|--2------2-|--2------2-|--------0-|--------0-| 
D|--0--------|--0--------|--2-------|--2-------| 
A|-----------|-----------|--2-------|--2-------| 
E|-----------|-----------|--0-------|--0-------| 

      C5         C5         A5        A5 
e|----0-----|----0-----|----0-----|----0-----| 
B|------1---|------1---|------0---|------0---| 
G|--------0-|--------0-|--2-----2-|--2-----2-| 
D|--2-------|--2-------|--2-------|--2-------| 
A|--3-------|--3-------|--0-------|--0-------| 
E|--3-------|--3-------|----------|----------| 

     D5          E5        C5         A5 
e|----2-----|----0-----|----0-----|----0-----| 
B|--3---3---|------0---|------1---|------0---| 
G|--2-----2-|--------0-|--------0-|--2-----2-| 
D|--0-------|--0-------|--2-------|--2-------| 
A|----------|--2-------|--3-------|--0-------| 
E|----------|--0-------|--3-------|----------| 



     E5      G5     C5          E5      G5     C5     
e|---------------------------|---------------------------| 
B|-------------------------1-|-------------------------1-| 
G|-----------------------0---|-----------------------0---| 
D|--2--2--2--------0---2-----|--2--2--2--------0---2-----| 
A|--2--2--2----------3-------|--2--2--2----------3-------| 
E|--0--3--0--0-0-3-----------|--0--3--0--0-0-3-----------| 

E5              E/G     G      
Come on little danger, die a little stranger 
D                      E5 
Swer you gonna fell my hell 
E5              E/G       G 
Come on little stranger, die a little later 
D                      E5 
Swer you gonna fell my hell 
D                      E5 
Swer you gonna fell my hell 
D                      E5 
Swer you gonna fell my hell 

No final vocÍ dedilha ou toca cada um  
desses acordes 4 vezes: E D C A9 

roll up this ad to continue

share this page

See Also: