E-Chords
Idina Menzel

Frozen Album(Tabs)

Idina Menzel

roll up this ad to continue



For The First Time In Forever #I        Capo VI 

E|--0--0h1--|--3-----------0--|-------------|-----------0--0--|--------0-----------0h1--| 
B|----------|--1--1--1--3-----|-------------|-----3--3--------|-----------1-------------| 
G|----------|--0--------------|-----2--2p0--|--0-----0--------|-----0-----------0-------| 
D|----------|--2--------------|-----3-------|--------0--------|-------------------------| 
A|----------|--3--------------|-------------|-----------------|--3-----------2----------| 
E|----------|-----------------|--1----------|--3--------------|-------------------------| 


E|--3-----------0--|-----3--3---------0--|--1p0--------------------|--------------0--| 
B|--1--1--1--3-----|--------0--0h1h3-----|----------3-----1-----3--|-----------3-----| 
G|--2--------------|--------0------------|----------0-----0--------|--------0--------| 
D|--2--------------|--------2------------|-------------------------|-----0-----------| 
A|--0--------------|--------2------------|-------------------------|-----------------| 
E|-----------------|--0-----0------------|--1----1-----1-----1-----|--3--------------| 




For The First Time In Forever #II       Capo VII 

E|--0h1--|--3-----------------0--|---------------------|-----------------0--|-------------------------| 
B|-------|--1--1-----1-----3-----|---------------------|-----3-----3--------|--------1-----------1p0--| 
G|-------|--0--------0-----------|-----2-----2-----2p0-|--0--------0--------|-----------0-------------| 
D|-------|--2--------------------|-----3-----3---------|-----------0--------|-----2-----------2-------| 
A|-------|--3-----3-----3--------|---------------------|--------------------|--3-----------2----------| 
E|-------|-----------------------|--1-----1-----1------|--3-----3-----3-----|-------------------------| 

                                          H                                                     H 
E|-----------0-----5-----3-|--------------12-------|--1-----0h1p0----------------|--------------12--0-| 
B|--1-----3----------------|-----0--0-----12-------|---------------3-----1-----3-|-----------3--------| 
G|--2----------------------|-----0--0-----12-----0-|---------------0-----0-------|--------0-----------| 
D|--2----------------------|-----------------------|-----------------------------|-----0--------------| 
A|--0--0--------0-----0----|-----------------------|-----------------------------|--------------------| 
E|-------------------------|--0--------0------0----|--1--1------------1-----1----|--3-----------------| 


E|-------------------0-----|-------0--5--5------------|-----0--0h1--|--3-----------------------------0--| 
B|--3p1--1--1-----3--------|--1h3--------1------------|-------------|--1--------1--------1--------3-----| 
G|--2----------------------|--2----------2------------|--0----------|--0--------------------------------| 
D|--2----------------------|-------------------0h2h3--|-------------|--2-----2--------2--------2--------| 
A|--0----------0--------0--|----------------3---------|-------------|--3--3--------3--------3-----------| 
E|-------------------------|--2----------2------------|-------------|-----------------------------------| 


E|--------3--------3--------3--0h1--|--3--------------------------5--3--| 
B|----------------------------------|-----------1--------1--------------| 
G|-----2--------2--------2----------|-----------------------------------| 
D|----------------------------------|--------0--------0--------0--------| 
A|----------------------------------|-----2--------2--------2-----------| 
E|--1--------1--------1-------------|-----------------------------------| 


E|------------------------------------0h1--|--3-----1p0--------|--3--3--3--3--3--3--3--| 
B|--------1--------1--------1--0h1h3-------|-----0-------3--1--|-----------------------| 
G|-----0--------0--------0-----------------|-----0-------------|--------------------0--| 
D|-----------------------------------------|-----0-------------|-----------2-----------| 
A|-----------------------------------------|-------------------|--3--------------------| 
E|--2--------2--------2--------------------|-----3-------------|-----------------------| 


E|--3--3--3--3--3--3--3--3--3--3--3--3--3--3--3--3--3--3--3--3--3--3--3--3--3--3--3--3--3--3--| 
B|--------1-----------------------------------------------------1--------------------------1--| 
G|-----------------0-----------------------------------0-----------------0-----------------0--| 
D|--------------------------2-----------------2-----------------------------------2--------2--| 
A|-----------------------------------3-----------------------------------------------------3--| 
E|--------------------------------------------------------------------------------------------| 




Do You Want To Build A Snowman? Capo VIII 


E|-------------------------|--------------------------|--------------------------| 
B|-------------------------|--------------------------|--------------------------| 
G|-------0--------0--------|--------0--------0--------|--------0--------0--------| 
D|----0--------0--------0--|-----0--------0--------0--|-----0--------0--------0--| 
A|--2--------3--------0----|--2--------3--------0-----|--2--------3--------0-----| 
E|-------------------------|--------------------------|--------------------------| 

                                                             H 
E|-----------------|-----------------------|---------------------|--------------------| 
B|-----------------|--------------------0--|-----0-----------12--|-----------------0--| 
G|--x--x--x--x--x--|--x--0--0--0-----0-----|--2--------0---------|--0--0--0-----0-----| 
D|--x--x--x--x--x--|--x-----------0--------|--0------------------|-----------0--------| 
A|--2--------------|-----------------------|---------------------|--------------------| 
E|--x--x--x--x--x--|--x--------------------|--3-----3-----3------|--------------------| 

                AH       
E|--------------2--|--------------------|------------------|--------------------| 
B|-----------------|-----------------0--|--1p0--------1p0--|-----------------0--| 
G|--2-----0--------|--0--0--0-----0-----|--0----0-----0----|--0--0--0-----0-----| 
D|--0-----0--------|-----------0--------|--2----------2----|-----------0--------| 
A|-----------------|--------------------|--3-------2-------|--------------------| 
E|--2--2-----2-----|--------------------|------------------|--------------------| 


E|--------------------|--------------------------------|-----------------------| 
B|--3-----------------|--3--3--3--3p1p0h1--3-----------|-----0-----------------| 
G|----------0---------|--0-----------------0--0--0-----|--2-----0--------0-----| 
D|-------0-----0------|--4-----------------2-----------|--------------0-----0--| 
A|--0--0-----------0--|--------------------3--------0--|--2--------2-----------| 
E|--------------------|--------------------------------|-----------------------| 


E|-----------------0--|---------|--------------------|-----------------3--|--------------------| 
B|--0-----------0--0--|---------|-----------------0--|-----0--------------|-----------------0--| 
G|-----2--0--2-----0--|---------|--0--0--0-----0-----|--2--------0--------|--0--0--0-----0-----| 
D|-----------1-----2--|---------|-----------0--------|--------------------|-----------0--------| 
A|-----------------2--|---------|--------------------|--3-----3-----3-----|--------------------| 
E|--2--------2-----0--|--0h2h3--|--------------------|--------------------|--------------------| 

                            H   AH  H 
E|-----------------------|--------------| 
B|-----------------------|--------------| 
G|--2p0h2p0-----------0--|--12------12--| 
D|--1-----------1--------|------16------| 
A|--3--------3-----3-----|--------------| 
E|-----------------------|--------------| 

         


  
Let It Go       Capo I 
                                                 


E|--2h3---2h3-----|--2h3-----3p2-----|--0h2-----0h2--0--|-----------|--2h3-----2h3-----| 
B|----------------|------------------|----------3-------|--3--1-----|------------------| 
G|--------0-------|----------0-------|----------2-------|--2--2-----|----------0-------| 
D|----------------|------------------|--0----0-------0--|--2--2-----|------------------| 
A|----------------|--3----3-------3--|------------------|--0-----0--|------------------| 
E|--0-----0----0--|------------------|------------------|-----------|--0----0-------0--| 

                                                    H   H 
E|--3p2------3p2-----|--0h2-----0h2--0--|--------|-------------------|------------------------| 
B|-------------------|----------3-------|--3--2--|--12--12--0--0-----|--0---------------------| 
G|-----------0-------|----------2-------|--2--2--|--12------0--------|-----2p0--0-------0-----| 
D|-------------------|--0----0-------0--|--2--2--|-------------------|-------------2p0-----2--| 
A|--3-----3-------3--|------------------|--0-----|-------------------|--3-------3-------------| 
E|-------------------|------------------|--------|--0-------0-----0--|------------------------| 

         
E|--------------------|-----------|--------------------|---------------------|-------------------| 
B|--------------------|--3--1-----|--0--0--0-----0--3--|--3p0----------------|-------------------| 
G|--2--2-----0--------|--2--2-----|--0-----------0-----|----------2p0-----0--|--2--2-----0--0h2--| 
D|--0-----0-----4--2--|--2--2-----|--------------------|---------------------|--0-----0----------| 
A|--------------------|--0-----0--|--------------------|--3----3-------3-----|-------------------| 
E|--------------------|-----------|--0--------0--------|---------------------|-------------------| 


E|-----------|--------------------0--|--------------------|-------------|-----------------0--| 
B|--3--2-----|-----0--0-----3--------|--3-----0--3-----3--|--3-----1p0--|--------0--------0--| 
G|--2--2-----|-----0--0--------------|--0-----0--0-----2--|-------------|-----2-----2-----0--| 
D|--2--2-----|-----------------------|-----------------0--|-----0-------|--2-----------2--2--| 
A|--0-----0--|--------------------3--|--3--3--------3-----|----------0--|-----------------2--| 
E|-----------|--0--------0-----0-----|--------------------|-------------|-----------------0--| 


E|-------------------|-------------|--------------|--------5-----|--2--------------| 
B|--0--0-------------|--0--0-------|--------------|--2-----------|--------------3--| 
G|--------2p0-----2--|--------2p0--|--------2-----|--------------|-----2--2--------| 
D|-------------------|-------------|--2-----------|--------------|--0--------0-----| 
A|----------------3--|--------3----|--0--0-----0--|-----0-----0--|-----------------| 
E|-------------0-----|-------------|--------------|--------------|-----------------| 


E|--------------0--0--|-----0-----0--0--------|--0--2-----3--2-----2--|--------------------| 
B|--------------------|--------3--------------|--1--------1--1-----1--|--------------3--3--| 
G|-----2--2-----------|-----------------------|--0--------------------|-----2--2-----------| 
D|--0--------0--------|--------------------2--|--0--------------------|--0--------0--------| 
A|--------------------|--3--------------3-----|--3-----3--------3-----|--------------------| 
E|--------------------|-----------------------|-----------------------|--------------------| 


E|--------------0--0--|-----0-----0--------0--|--------0--------------0--|--2-----3--| 
B|--------------------|--------3-----3--------|--1--------1-----------1--|-----------| 
G|-----2--2-----------|-----------------0-----|-----0--------0--------0--|-----------| 
D|--0--------0--------|-----------------------|-----------------2-----2--|-----------| 
A|--------------------|--3--------------------|--------------------3--3--|-----3-----| 
E|--------------------|-----------------------|--------------------------|-----------| 

    strum 
E|--3--3--3--3--3--3--3--3--0h2h3--|--------------------7--5--|-----------5-----3p0--| 
B|--1--1--1--1--1--1--1--1---------|--------------------------|--------7--------0----| 
G|--0--0--0--0--0--0--0--0---------|--------0-----------------|-----0----------------| 
D|--2--2--2--2--2--2--2--2---------|-----0-----0-----0-----0--|--0-----------0-------| 
A|--3--3--3--3--3--3--3--3---------|--------------------------|----------------------| 
E|---------------------------------|--3-----------3-----------|----------------------| 

                                 
E|--0--0--0-----0h2-----3--|--------------3--0h2--3--|--------------------7--7--| 
B|--0-----------0----------|--------------x----------|--------------------------| 
G|-------------------------|--------0-----x----------|--------0-----------------| 
D|-------------------------|-----2-----2--x----------|-----0-----0-----0-----0--| 
A|-------------------------|--3-----------x----------|--------------------------| 
E|--0--------0-------0-----|--------------x----------|--3-----------3-----------| 


E|--7p5-----5h7p5--3h5--|--7-----8p7-----5--|--3--------3--------3-----|--10------7-----5--| 
B|----------------------|--0-------------0--|-----0--------0--------0--|----------0-----7--| 
G|----------------------|-------------------|--------0--------0--------|--0----------------| 
D|-------0--------------|-------------------|--------------------------|--x-------------0--| 
A|----------------------|-------------------|--3-----------------------|--10--10-----x-----| 
E|----------------------|--0--0-------0-----|--------------------------|-------------x-----| 


E|--5-----5---5\3--3--|--10-----7-----3p2--|--0--------0--------3--3--|--2--------------| 
B|--7-----7---7\5-----|--0------0----------|-----1--------1-----------|--3-----3-----3--| 
G|--------------------|--------------------|--------0--------0--------|--4-----4-----3--| 
D|-----0--------------|--------------------|--------------------------|--4--------------| 
A|----------x---------|------------x-------|--3-----------------------|--2--2-----x--1--| 
E|----------x---------|--0---0-----x-------|--------------------------|-----------x-----| 

                                                      H 
E|----------------0--1--------|---------------------------| 
B|-------------3--------3-----|--1--1p0--1--1p0--1p0------| 
G|----------3--------------3--|--0--------------------12--| 
D|-------3--------------------|--2------------------------| 
A|----1-----------------------|--3------------------------| 
E|----------------------------|---------------------------| 



*note at the bottom*: I tabbed what can be seen at Songsterr and Jellynote. This tab belongs to Peter Gergely.  
The links for the sites are in the description of the video (the link is at the beginning of the tab). 


************************************ 

| /   slide up 
| \   slide down 
| h   hammer-on 
| p   pull-off 
| ~   vibrato 
| +   harmonic 
| x   Mute note 
| b   Bend 
| pb  Pre-bend 
| br  Bend release 
| pbr Pre-bend release 
| brb Bend release bend 
| H   Harmonic 
| AH  Artificial Harmonic 

************************************ 
share this page

See Also: