E-Chords
Iamdynamite

Ms Jones(Tabs)

Iamdynamite

Tuning: Standard 

e|------------------------------------------------------------------------------| 
B|------------------------------------------------------------------------------| 
G|------------------------------------------------------------------------------|  
D|-------------------------------------------------5-4--------------------------| x2 
A|-------5--5-6-7------------------------7--5h7--------5s7------------5---------| 
E|---0-0---7------5s3--5--7--5s3--00-----------------------7-5s3s5--7---7-5s3-0-| 

e|---------------------------------------------------------------------------| 
B|---------------------------------------------------------------------------| 
G|---------------------------------------------------------------------------| 
D|---------------------------------------------------------------------------| 
A|--22-2222--x4--------------------------------------------------------------| 
E|--00-0000------------------------------------------------------------------| 

e|----------------------------------------------------------------------------------------| 
B|----------------------------------------------------------------------------------------| 
G|----------------------------------------------------------------------------------------| 
D|-12-12-12----5-5-5-----12-12-12-----11-11-11----12-12-12----5-5-5----11-11-11-----------| 
A|-10-10-10----7-7-7-----10-10-10------9--9--9----10-10-10----7-7-7-----9--9--9-----------| 
E|----------------------------------------------------------------------------------------| 

e|---------------------------------------------------------------------------| 
B|---------------------------------------------------------------------------| 
G|---------------------------------------------------------------------------| 
D|-12-12-12-----5-5-5-----12-12-12-----11-11-11------------------------------| x4 
A|-10-10-10-----7-7-7-----10-10-10------9--9--9------------------------------| 
E|---------------------------------------------------------------------------| 

e|---------------------------------------------------------------------------| 
B|---------------------------------------------------------------------------| 
G|----------------12-9-----12b--9--------------------------------------------| 
D|---------------------------------------------------------------------------| 
A|-------------------------------------------2-Repeat Many-------------------| 
E|-------------------------------------------0-------------------------------| 

e|---------------------------------------------------------------------------| 
B|---------------------------------------------------------------------------| 
G|---------------------------------------------------------------------------| 
D|-12-12-12-----5-5-5-----12-12-12-----11-11-11------------------------------| x4 
A|-10-10-10-----7-7-7-----10-10-10------9--9--9------------------------------| 
E|---------------------------------------------------------------------------| 

e|------------------------------------------------------------------------------| 
B|------------------------------------------------------------------------------| 
G|------------------------------------------------------------------------------|  
D|-------------------------------------------------5-4--------------------------| x2 
A|-------5--5-6-7------------------------7--5h7--------5s7------------5---------| 
E|---0-0---7------5s3--5--7--5s3--00-----------------------7-5s3s5--7---7-5s3-0-| 


************************************ 

| /   slide up 
| \   slide down 
| h   hammer-on 
| p   pull-off 
| ~   vibrato 
| +   harmonic 
| x   Mute note 
| b   Bend 
| pb  Pre-bend 
| br  Bend release 
| pbr Pre-bend release 
| brb Bend release bend 

************************************ 

roll up this ad to continue

share this page

See Also: