E-Chords
Hush Puppies

You're Gonna Say Yeah!(Tabs)

Hush Puppies

roll up this ad to continue

        Intro 

e|---------------------------------------------------------------------| 
B|---------------------------------------------------------------------| 
G|--5-5-----10-10----14-14----14-14------------------------------------| 
R|--5-5-----10-10----14-14----14-14------------------------------------|x2 
A|--3-3-----8--8-----12-12----12-12------------------------------------| 
E|---------------------------------------------------------------------| 


Verso 

e|---------------------------------------------------------------------| 
b|---------------------------------------------------------------------| 
g|--5-5---5-5-5---10-10---10-10-10----14-14----14-14-14----14-14-14----| 
d|--5-5---5-5-5---10-10---10-10-10----14-14----14-14-14----14-14-14----|x2 
a|--3-3---3-3-3---8--8----8--8--8-----12-12----12-12-12----12-12-12----| 
E|---------------------------------------------------------------------| 


Pre-coro 

e|---------------------------------------------------------------------| 
b|---------------------------------------------------------------------| 
g|--5-5-5.....5 5 5/10-10-10.....10-10-10/14......---------------------| 
d|--x-x-x.....x-x x/x--x--x......x--x--x-/14......-x6------------------| 
a|--3-3-3.....3-3-3/8--8--8......8--8--8-/12......---------------------| 
E|---------------------------------------------------------------------| 

e|---------------------------------------------------------------------| 
b|---------------------------------------------------------------------| 
g|--5-5-5.....5 5 5/10-10-10.....10-10-10/14......----14---------------| 
d|--x-x-x.....x-x x/x--x--x......x--x--x-/14......-x5-14---------------| 
a|--3-3-3.....3-3-3/8--8--8......8--8--8-/12......----12---------------| 
E|---------------------------------------------------------------------| 


_________________________________ x2 __________________________________ 

Coro 

e|---------------------------------------------------------------------| 
b|---------------------------------------------------------------------| 
g|---5-5-5/-14/-10-----5-5-5/-14/-10-----5-5-5/-14---------------------| 
d|---5-5-5/-14/-10-----5-5-5/-14/-10-----5-5-5/-14---------------------| 
a|---3-3-3/-12/-8------3-3-3/-12/-8------3-3-3/-12---------------------| 
E|---------------------------------------------------------------------| 




Outro 

e|-------| 
B|-------| 
G|--7~---| 
D|--7~---| 
A|--5~---| 
D|-------|
        
share this page

See Also: