E-Chords
Hozier

In A Week (acoustic)(Tabs)

Hozier

roll up this ad to continue

Tuning: Standard 

Intro: 
e--------------0-2-3-------3--------7---3-5--3-------------------|-------------------------| 
B--3---------3----------0-------0--------------5--3---0---3---0--|-0h1---1-3-1-0-----3-0---| 
G-------0--------------------------------------------------------|-----2---------2---------| 
D----------------------------------------------------------------|---------------0-0--0----| 
A----------------------------------------------------------------|-0-------0---------------| 
E--3--3---3--3-----3--3----3--3-----3-3---3-------3-3-3-3-3-3-3-3|---------------------3-3-| 

e---------------------------------|-------0------------0------|| 
B---------3--0--------------------|-----3---3--------3---3----|| 
G--2-0-2--------2-0-2---0-0-------|---0-------0----0-------0--|| 
D-------------------0-0-----------|---------------------------|| 
A---------------------------------|---------------------------|| 
E------1--1--0------------3-3-3---|-3------------3------------|| 

 Verse:                                                                       x2 
e--------0--------------0-------------------<1--------------------------------| 
B------3---3----------3---3--------3-----3--<1----------0---0h1p0-------0-----| 
G----0-------0------0-------0----0-----0----<2--------0---0-----------0---0---| 
D--3-----------3--2-------------------------<1------0---------------0-------0-| 
A------------------------------3-----1------<3--------------------------------| 
E-------------------------------------------<1-1--3----------------3----------| 

1. I have never known peace like the damp grass that yeilds to me, 
2. I have never known hunger like these insects that feast on me. 

e--------0-------------0-------------| 
B------3---3---------3---3------<1=--| 
G----0-------0-----0-------0----<0=--| 
D--3-----------3-2-----------2--<0=--| 
A-------------------------------<3=--| 
E------------------------------------| 
A thousand teath ando yours among them, I know... 

e--------0--------------0-------------------<1--------------------------------|| 
B------3---3----------3---3--------3-----3--<1----------0---0h1p0-------0-----|| 
G----0-------0------0-------0----0-----0----<2--------0---0-----------0---0---|| 
D--3-----------3--2-------------------------<1------0---------------0-------0-|| 
A------------------------------3-----1------<3--------------------------------|| 
E-------------------------------------------<1-1--3----------------3----------|| 
Our hungers apeassed, our heart-beat becoming slow. 

Pre-Chorus                                                    x2 
e-------------0---2-0-2--------|------------------------------|| 
B------3------1---3-3-3-----3--|------1-------------3---------|| 
G------0------0---2-2-2-----0--|-------------0----2--------0--|| 
D------0----2-----0---------0--|----2------0----0--------0----|| 
A----2----3---------------2----|--0---------------------------|| 
E--3--------------------3------|---------3-------------3------|| 
1.We'll lay here for years and for hours,Thrawn here or found to freeze or to thaw, 
2, So long, we'll become a flowers... Two corpses we were,two corpses I saw. 

Chorus: 
e--------------0-2-3-------3--------7---3-5--3-------------------|-------------------------| 
B--3---------3----------0-------0--------------5--3---0---3---0--|-0h1---1-3-1-0-----3-0---| 
G-------0--------------------------------------------------------|-----2---------2---------| 
D----------------------------------------------------------------|---------------0-0--0----| 
A----------------------------------------------------------------|-0-------0---------------| 
E--3--3---3--3-----3--3----3--3-----3-3---3-------3-3-3-3-3-3-3-3|---------------------3-3-| 
And they'll find us in a week when the weather gets hot, after the insects have made their claim  

e---------------------------------|-------0------------0------|| 
B---------3--0--------------------|-----3---3--------3---3----|| 
G--2-0-2--------2-0-2---0-0-------|---0-------0----0-------0--|| 
D-------------------0-0-----------|---------------------------|| 
A---------------------------------|---------------------------|| 
E------1--1--0------------3-3-3---|-3------------3------------|| 

I'll be home with you, I'll be home with you... 

verse 2: 

I have never known sleep like this slumber that creeps to me 
I have never known colors like this morning reveals to me 
And you haven't moved an inch such that I would not know 
If you sleep always like this, flesh calmly going cold 

Pre-Chorus 2: 

We'll lay here for years or for hours 
Your hand in my hand, so still and discreet 
So long, we'd become the flowers 
We'd feed well the land and worry the sheep 



And they'd find us in a week 
When the cattle'd show fear 
After the insects have made their claim 
After the foxes have known our taste 
I'll be home with you, I'll be home with you 

And they'd find us in a week 
When the weather gets hot 
And they'd find us in a week 
When the cattle'd show fear 

And they'd find us in a week 
When the buzzards get loud 
After the insects have made their claim 
After the foxes have known our taste 
After the raven has had his say 
I'll be home with you, I'll be home with you 
I'll be home with you, I'll be home with you 
I'll be home with you, I'll be home with you 




************************************ 

| /   slide up 
| \   slide down 
| h   hammer-on 
| p   pull-off 
| ~   vibrato 
| +   harmonic 
| x   Mute note 
| b   Bend 
| pb  Pre-bend 
| br  Bend release 
| pbr Pre-bend release 
| brb Bend release bend 

************************************ 
share this page

See Also: