E-Chords
Home Wreckers

HomeWrecka(Tabs)

Home Wreckers

Australia 
HomeWreckers - HomeWrecka   tabbed by ViX 
(verse) 
e----------------------------------------  
B----------------------------------------  
G----------------------------------------  
D--5--8--8--6----(play 8 times)---------- 
A--5--8--8--6---------------------------- 
E--3--6--5--4---------------------------- 
 
(chorus) 
e---------------------------------------- 
B---------------------------------------- 
G--5-----6------------------------------- 
D--5--5--6--6---- (play 2 times)--------- 
A--3--5--4--6---------------------------- 
E-----3-----4---------------------------- 
 
(bridge) 
e---------------------------------------- 
B---------------------------------------- 
G---------------------------------------- 
D--6---5----8--7--8---- (play 2 times)--- 
A--6---5----8--7--8---------------------- 
E--4---3----6--5--6---------------------- 
  >slide< 
 
 
(V1) 
Smash our way through your white picket fence 
Homewreckers, gonna make your life a mess< 
Get on your knees, we don't wanna say it twice 
We're here to fuck up your perfect little lives 
 
(ch) 
Homewreckers, make your life a mess 
Total destruction, nothing less 
 
(v2) 
Your wife is crying, running for the door 
Cuz she knows wot we have got in store for her 
In no time we'll have her crying for more 
Cuz we know she's a filthy little whore 
 
(ch) 
 
(v3) 
We'll tie you up and chop off your dick 
Won't take long cuz it's not very thick 
This is wot you get for beinga prick 
It's fucks like you that make want to be sick 
 
(ch) 
 
(v4) 
We're the Homewreckers 
Smash your house and steal your car 
If your lucky we won't do it twice 
We're homewreckers, not nice! 

roll up this ad to continue

share this page

See Also: