E-Chords
Holograms

Fever(Tabs)

Holograms

roll up this ad to continue

INTRO/Chorus: 
e|-7777-7777-7777-7777-|-4444-4444-4444-4444-| 
B|-7777-7777-7777-7777-|-4444-4444-4444-4444-| 
G|-8888-8888-8888-8888-|-5555-5555-5555-5555-| 
D|-9999-9999-9999-9999-|-6666-6666-6666-6666-| 
A|-9999-9999-9999-9999-|-6666-6666-6666-6666-| 
E|-7777-7777-7777-7777-|-4444-4444-4444-4444-| x4 

Verse: 
e|-7----4----7----4----| 
B|-7----4----7----4----| 
G|-8----5----8----5----| 
D|-9----6----9----6----| 
A|-9----6----9----6----| 
E|-7----4----7----4----| x2 

Pre-Chorus 
e|--------------------|-7777-7777-7777-7777-| 
B|--------------------|-7777-7777-7777-7777-| 
G|-9--9--99--8--8--88-|-8888-8888-8888-8888-| 
D|-9--9--99--8--8--88-|-9999-9999-9999-9999-| 
A|-7--7--77--6--6--66-|-9999-9999-9999-9999-| 
E|--------------------|-7777-7777-7777-7777-| x2 

e|--------------------|-4444-4444-4444-4444-| 
B|--------------------|-4444-4444-4444-4444-| 
G|-6--6--66--9--9--99-|-5555-5555-5555-5555-| 
D|-6--6--66--9--9--99-|-6666-6666-6666-6666-| 
A|-4--4--44--7--7--77-|-6666-6666-6666-6666-| 
E|--------------------|-4444-4444-4444-4444-| x2 

Repeat from beginning 

e|-7-----| 
B|-7-----| 
G|-8-----| 
D|-9-----| 
A|-9-----| 
E|-7-----| 

BRIDGE/Solo: 
e|-----------------------|-----------------------| 
B|-----------------------|-----------------------| 
G|-----------------------|-----------------------| 
D|-999-888-9-8---------6-|-999-888-9-8-----------| 
A|-------------9999-999--|-------------6666-6666-| 
E|-----------------------|-----------------------| 

e|----------------------|----------------------| 
B|----------------------|----------------------| 
G|----------------------|----------------------| 
D|----------------------|----------------------| 
A|-999-777-66-2222-2222-|-999-777-66-----------| 
E|----------------------|------------4444-4444-| 

                         1.                     2. 
e|----------------------|----------------------|----------------------| 
B|----------------------|----------------------|----------------------| 
G|----------------------|----------------------|----------------------| 
D|-----666-44-----------|-----999-88-----------|-----999-88-6666-6666-| 
A|-666--------7777-7777-|-999--------6666-6666-|-999------------------| 
E|----------------------|----------------------|----------------------| 

                        1.                    2. 
e|---------------------|---------------------|--------------------| 
B|---------------------|---------------------|--------------------| 
G|-----999-88-8888-888-|-----888-66----------|-----888-66---------| 
D|-999-----------------|-888--------6666-666-|-888--------6666-66-| 
A|---------------------|---------------------|--------------------| 
E|---------------------|---------------------|--------------------| 

e|----------------|------------------------|----------------| 
B|----------------|------------------------|----------------| 
G|-8\6-666-666-66-|-666-666-66--666-666-66-|-6-6-6-6--6-6-6-| 
D|-8\6-666-666-66-|-666-666-66--666-666-66-|-6-6-6-6--6-6-6-| 
A|-6\4-444-444-44-|-444-444-44--444-444-44-|-4-4-4-4--4-4-4-| 
E|----------------|------------------------|----------------| 

OUTRO: 
e|---------------------|---------------------| 
B|---------------------|---------------------| 
G|-8888-8888-8888-8888-|-5555-5555-1111-1111-| 
D|-9999-9999-9999-9999-|-6666-6666-2222-2222-| 
A|-9999-9999-9999-9999-|-6666-6666-2222-2222-| 
E|-7777-7777-7777-7777-|-4444-4444-0000-0000-| x6 

e|---------------------| 
B|---------------------| 
G|-5-------------------| 
D|-6-------------------| 
A|-6-------------------| 
E|-4-------------------|  
share this page

See Also: