E-Chords
Hinos de Futebol

Hino Oficial Do Cruzeiro Esporte Clube(Tabs)

Hinos de Futebol

roll up this ad to continue

Key: F
Intro 

E|----------------------------------------------------| 
B|---6-6-6--------5-5-5--------6-6-6-------5----------| 
G|---5-5-5--------5-5-5--------5-5-5-------5----------| 
D|-3--------5-6-5--------6-8-6--------5----5----------| 
A|--------------------------------------8-----7-------| 
E|----------------------------------------------8-----| 

Variação Intro 

E|----------------------------------------------------| 
B|----------------------------------------------------| 
G|-5h6p5----------------------------------------------| 
D|-------8-6-5----------------------------------------| 
A|----------------------------------------------------| 
E|----------------------------------------------------| 

Primeira Parte 

E|----------------------------------------------------| 
B|--------9-8-------11-9--8-8~------------------------| 
G|----10------10-9-------------10~--------------------| 
D|-10-------------------------------------------------| 
A|----------------------------------------------------| 
E|----------------------------------------------------| 

Existe um grande clube na cidade 

E|----------------------------------------------------| 
B|-----------13-11-10-----14-13-11~-------------------| 
G|-10-11-10------------10-----------------------------| 
D|----------------------------------------------------| 
A|----------------------------------------------------| 
E|----------------------------------------------------| 

Que mora dentro do meu coração 

E|----------------------------------------------------| 
B|-14-13-14-13----------------------------------------| 
G|-------------15-13-12-12----------------------------| 
D|-------------------------15~------------------------| 
A|----------------------------------------------------| 
E|----------------------------------------------------| 

Eu vivo cheio de vaidade 

E|----------------------------------------------------| 
B|----------------13-------------------13-------------| 
G|-------12-13-15----15-13----------13----15~---------| 
D|----15-------------------15-12-15-------------------| 
A|-15-------------------------------------------------| 
E|----------------------------------------------------| 

Pois na realidade é um grande campeão 


Segunda Parte 

E|-----------13---------------------------------------| 
B|-13-14-16------16-14-13-----------------------------| 
G|------------------------15--------------------------| 
D|---------------------------15-----------------------| 
A|----------------------------------------------------| 
E|----------------------------------------------------| 

Nos gramados de Minas Gerais 

E|----------------------------------------------------| 
B|----13-14p13----------------------------------------| 
G|-15----------15-13-15p13-12-------------------------| 
D|----------------------------15-13~------------------| 
A|----------------------------------------------------| 
E|----------------------------------------------------| 

Temos páginas heroicas, imortais 

E|----------------------------------------------------| 
B|--------------------13--16-14~----------------------| 
G|-----------------14---------------------------------| 
D|-15-16-15--14-15------------------------------------| 
A|----------------------------------------------------| 
E|----------------------------------------------------| 

Cruzeiro, Cruzeiro querido 

E|----------------------------------------------------| 
B|-14-13-----13----------13---------------------------| 
G|-------15-----15-13-12----15-13~--------------------| 
D|----------------------------------------------------| 
A|----------------------------------------------------| 
E|----------------------------------------------------| 

Tão combatido, jamais vencido! 


Final 

E|----------------------------------------------------| 
B|---------------6-6-8-8--9--9------9-----------------| 
G|---------5-6-8---------------8----8-----------------| 
D|-6p5-6-8-----------------------10-10----------------| 
A|----------------------------------11----------------| 
E|----------------------------------------------------| 
share this page

See Also: