E-Chords
Hijos Del Oeste

La Noche Que Me Diste(Tabs)

Hijos Del Oeste

roll up this ad to continue

intro: 

1|-------------------------------------------------- 
2|-------------------------------------------------- 
3|--5s7-5~--4h5h4s2----5s7-5~--4h5h4s2-------------- 
4|-------------------------------------------------- 
5|-------------------------------------------------- 
6|-------------------------------------------------- 

                               
1|---------------------0-------4-5-4-------0-------- 
2|---------------------0----5-6-----6-5----1-------- 
3|--5s7-5~--4h5h4s2----1---------------5-4-2-------- 
4|------------------3--2-------------------2-------- 
5|---------------------2-------------------0-------- 
6|---------------------0---------------------------- 

           solo: 

1|-------------------------------------5-8h5--------------- 
2|--10h8-10~---------------------------6------------------- 
3|------------9-10-12-10-9-10h9--------7------9h10h9-7-9--- 
4|-----------------------------12-12----------------------- 
5|--------------------------------------------------------- 
6|--------------------------------------------------------- 

1|------------------------------------10------------------- 
2|--10s12-12-12-10-8-10h8-8---------10v-10-10-8-10-10-10-- 
3|--------------------------------------------------------- 
4|--------------------------------------------------------- 
5|--------------------------------------------------------- 
6|---------------------------3-2-0------------------------- 

1|----------------15-13-12-12h13h12--10-12-10-------------- 
2|----------15-17----------------------------13-12h13h12--- 
3|--14-16-17----------------------------------------------- 
4|--------------------------------------------------------- 
5|--------------------------------------------------------- 
6|--------------------------------------------------------- 


1|-----------------------------------4-5-4------ 
2|--10-12-10--10------------------5-6-----6-5--- 
3|----------12--12-10-12-10-9-9----------------- 
4|---------------------------------------------- 
5|---------------------------------------------- 
6|---------------------------------------------- 
share this page

See Also: