E-Chords
Head Automatica

I Shot William H. Macy(Tabs)

Head Automatica

 
|----| 
|----| 
|-8--| 
|-8--| 
|-6--| 
|----|  x16 
 
verse 
|--------------------------- 
|-------------3-3----------- 
|-3----5-5----3-3--5-4-5-4-3 
|-3----5-5----1-1--3-3-3-3-3 
|-1----3-3------------------ 
|--------------------------- 
                   . . . . . 
P.M. 
 
|-------------------------- 
|-------------3-3---------- 
|-3----5-5----3-3--x-3-3--- 
|-3----5-5----1-1--x-1-1--- 
|-1----3-3----------------- 
|-------------------------- 
                 
 
 
Chorus 
|-------------------------------------------------------------------- 
|-------------------------------------------------------------------- 
|-6-6-6-6-6-6-6-----------7-7-7-7-7-7-7----------6-6-6-6-6-6-6------- 
|-6-6-6-6-6-6-6--6--------7-7-7-7-7-7-7----------6-6-6-6-6-6-6--6---- 
|-4-4-4-4-4-4-4----4-8----5-5-5-5-5-5-5--9--6----4-4-4-4-4-4-4----4-8 
|-------------------------------------------------------------------- 
 
 
Interlude 
|---|      |---| 
|---|      |---| 
|-8-|      |-7-| 
|-8-|      |-7-| 
|-6-|  x8  |-5-|   x8 
|---|      |---|   
  .          . 
  
then the verse 
 
then the Chorus 
 
then the interlude 
 
then the Chorus 2x 
 
then the interlude 4x 
 
 
Legend 
 
P.M. = palm mute 
x = muted note 

roll up this ad to continue

share this page

See Also: