E-Chords
Hatsune Miku

Mythologias End(Tabs)

Hatsune Miku

Check out my YouTube channel, J-Coverz, for more help with this song and others. This took  
FOREVER and isn't exactly spaced out properly, so I recommend listening to the song while 
you try this. Any questions, comments, or constructive criticism is appreciated.  


Chorus + INTRO 
(3x                                                                          ) 
e|---------------------------------------------------------------------------| 
B|---------------------------------------------------------------------------| 
G|-8--8--8--8--8----10-10-10-10-10---12-12-12-12-12---13-13-13-13-13---------| 
D|-10-10-10-10-10---10-10-10-10-10---13-13-13-13-13---13-13-13-13-13---------| 
A|---------------------------------------------------------------------------| 
E|---------------------------------------------------------------------------| 

(15x   )(pick scrape) 
e|-----|---------------------------------------------------------------------| 
B|-----|---------------------------------------------------------------------| 
G|-8---|---------------------------------------------------------------------| 
D|-10--|---------------------------------------------------------------------| 
A|-----|--/////////////////////////////////////////////////////////////////--| 
E|-----|--/////////////////////////////////////////////////////////////////--| 


e|---------------------------------------------------------------------------| 
B|-----------------------------------4---4-5-6-------------------------------| 
G|---------------------------------5---5-------3*brb-0h1p0-------------------| 
D|-------------------------------1-------------------------3-1---------------| 
A|------------0-1-----------0-1----------------------------------------------| 
E|--1-1-4-1-4-----1-1-4-1-4--------------------------------------------------| 

e|---------------------------------------------------------------------------| 
B|---------------------------------------------------------------------------| 
G|-------------------------------6-6-------6--8-8-8--------------------------| 
D|-------------------------------6-6-------6--8-8-8--------------------------| 
A|------------0-1-----------0-1--4-4-4-4-4-4--6-6-6--------------------------| 
E|--1-1-4-1-4-----1-1-4-1-4--------------------------------------------------| 

(slide) 
e|--10/////////////////////20-(SHRED IT)-------------------------------------| 
B|---------------------------------------------------------------------------| 
G|---------------------------------------------------------------------------| 
D|---------------------------------------------------------------------------| 
A|---------------------------------------------------------------------------| 
E|---------------------------------------------------------------------------| 

(Totally guessing the notes. I just know it?s some form of A shape major scale) 
e|--20p18--18----------------------------------------------------------------| 
B|-------21?-21-20-18-21-20-18-----------------------------------------------| 
G|----------------------------20-19-17-20-19-17------------------------------| 
D|---------------------------------------------20-19-17----------------------| 
A|-----------------------------------------------------20-18-17--------------| 
E|-------------------------------------------------------------20-18-17-18---| 

e|---------------------------------------------------------------------------| 
B|---------------------------------------------------------------------------| 
G|---------------------------------------------------------------------------| 
D|------------20brb-18-20~---------------------------------------------------| 
A|----17-18-20---------------------------------------------------------------| 
E|--20-----------------------------------------------------------------------| 

e|--------13----15-16?-16brb-15-------------------16/18-18----18brb-16-18~---| 
B|--13-13----13----------------16----------14-14----------16-----------------| 
G|---------------------------------15/17-------------------------------------| 
D|---------------------------------------------------------------------------| 
A|---------------------------------------------------------------------------| 
E|---------------------------------------------------------------------------| 

verse 1 
 (4x                  )(4x                 ) whole thing twice 
e|--------------------|--------------------|--------------------------------| 
B|--------------------|--------------------|--------------------------------| 
G|--12-12-------12----|--8--8--------8-----|--------------------------------| 
D|--13-13-13-13-13-13-|--10-10-10-10-10-10-|--------------------------------| 
A|--------------------|--------------------|--------------------------------| 
E|--------------------|--------------------|--------------------------------| 

e|---------------------------------------------------------------------------| 
B|---------------------------------------------------------------------------| 
G|-------6-----6-----6-----6----8/6------6-----6---------6-----8-------------| 
D|-------6-----6-----6-----6----8/6------6-----6---------6-----8-------------| 
A|---------------------------------------------------------------------------| 
E|--6-6----6-6---6-6---6-6---6-6-----6-6---6-6---6-6-6-6---6-6---------------| 

 (3x              ) 
e|----------------|-----------------------------------------------------------| 
B|----------------|-----------------------------------------------------------| 
G|----------------|-----------------------------------------------------------| 
D|----------------|------5*h6p5-3---------------------------------------------| 
A|------------0-1-|----3----------6-------------------------------------------| 
E|--1-1-4-1-4-----|--4--------------------------------------------------------| 

e|-----------------------------------------------------------8-9-10----------| 
B|----------------9-------------------------------11-------------------------| 
G|------6---8p6---------5*h6p5---------8---10p8------10-8-10-----------------| 
D|--6-6---6-----6---6-6--------6---8-8---8------8----------------------------| 
A|---------------------------------------------------------------------------| 
E|---------------------------------------------------------------------------| 
 (16x  ) 
e|-----|--------------------------------------------------------------------| 
B|-----|--------------------------------------------------------------------| 
G|--8--|--5-----5-----5-5---------------------------------------------------| 
D|--10-|--5-----5-----5-5---------------------------------------------------| 
A|-----|--3-3-3-3-3-3-3-3---------------------------------------------------| 
E|-----|--------------------------------------------------------------------| 

Chorus 
e|-------------------------------------------------------------------------------------| 
B|-------------------------------------------------------------------------------------| 
G|--8--8--------8-------10-10-------10------12-12-------12------13-13-------13-13------| 
D|--10-10-10-10-10-10---10-10-10-10-10-10---13-13-13-13-13-13---13-13-13-13-13-13------| 
A|-------------------------------------------------------------------------------------| 
E|-------------------------------------------------------------------------------------| 

e|-------------------------------------------------------------------------------------| 
B|-------------------------------------------------------------------------------------| 
G|--8--8--------8-------10-10-------10------12-12-------12------15-15-------15-15------| 
D|--10-10-10-10-10-10---10-10-10-10-10-10---13-13-13-13-13-13---17-17-17-17-17-17------| 
A|-------------------------------------------------------------------------------------| 
E|-------------------------------------------------------------------------------------| 

e|-------------------------------------------------------------------------------------| 
B|-------------------------------------------------------------------------------------| 
G|--8--8--------8-------10-10-------10------12-12-------12------13-13-------13-13------| 
D|--10-10-10-10-10-10---10-10-10-10-10-10---13-13-13-13-13-13---13-13-13-13-13-13------| 
A|-------------------------------------------------------------------------------------| 
E|-------------------------------------------------------------------------------------| 

e|-------------------------------------------------------------------------------------| 
B|-------------------------------------------------------------------------------------| 
G|--8--8--------8-------10-10-------10------12-12-------12------13-13-13-13-13-13-13---| 
D|--10-10-10-10-10-10---10-10-10-10-10-10---13-13-13-13-13-13---13-13-13-13-13-13-13---| 
A|-------------------------------------------------------------------------------------| 
E|-------------------------------------------------------------------------------------| 

e|---------------------------------------------------------------------------| 
B|-----------------------------------4---4-5-6-------------------------------| 
G|---------------------------------5---5-------3*brb-0h1p0-------------------| 
D|-------------------------------1-------------------------3-1---------------| 
A|------------0-1-----------0-1----------------------------------------------| 
E|--1-1-4-1-4-----1-1-4-1-4--------------------------------------------------| 


e|--------13----13----13---16--16-15-13--------------------------------------| 
B|--11/16----16----16------------------16-15-13------------------------------| 
G|---------------------------------------------16-15-13----------------------| 
D|---------------------------------------------------------------------------| 
A|---------------------------------------------------------------------------| 
E|---------------------------------------------------------------------------| 

e|--------------------------15-15-15--16-16----------------------------------| 
B|-----11p9-12p9-11p9-------16-16-16--16-16----------------------------------| 
G|--10----------------10-8---------------------------------------------------| 
D|---------------------------------------------------------------------------| 
A|---------------------------------------------------------------------------| 
E|---------------------------------------------------------------------------| 

e|--20p16-18p16-16-16-20p16-18p16-16-16-20p16-18p16-16-16-20p16-18p16-16-16--| 
B|---------------------------------------------------------------------------| 
G|---------------------------------------------------------------------------| 
D|---------------------------------------------------------------------------| 
A|---------------------------------------------------------------------------| 
E|---------------------------------------------------------------------------| 

e|--20p16-18p16-16-16--19p16-18p16-16-16-19p16-18p16-16-16--16-16-16-16-16---| 
B|---------------------------------------------------------------------------| 
G|---------------------------------------------------------------------------| 
D|---------------------------------------------------------------------------| 
A|---------------------------------------------------------------------------| 
E|---------------------------------------------------------------------------| 

e|--------------------------------------15-------18-------20----20/21-20-----| 
B|-----------------------------------13----13/16----16/18----18--------------| 
G|--15brb-p13----13------------13--------------------------------------------| 
D|------------15----15---15-15----15-----------------------------------------| 
A|---------------------------------------------------------------------------| 
E|---------------------------------------------------------------------------| 

e|--15-15-15-16---20brb-p18-21b----------------------------------------------| 
B|--16-16-16-16--------------------------------------------------------------| 
G|---------------------------------------------------------------------------| 
D|---------------------------------------------------------------------------| 
A|---------------------------------------------------------------------------| 
E|---------------------------------------------------------------------------| 

verse 1 
 (4x                  )(4x                 ) whole thing twice 
e|---------------------|---------------------|--------------------------------| 
B|---------------------|---------------------|--------------------------------| 
G|--12-12--12-12-12-12-|--8--8---8--8--8--8--|--------------------------------| 
D|--13-13--13-13-13-13-|--10-10--10-10-10-10-|--------------------------------| 
A|---------------------|---------------------|--------------------------------| 
E|---------------------|---------------------|--------------------------------| 

e|---------------------------------------------------------------------------| 
B|---------------------------------------------------------------------------| 
G|-------6-----6-----6-----6----8/6------6-----6-----8---6---5h6p5-----------| 
D|-------6-----6-----6-----6----8/6------6-----6-----8---6---5h6p5-----------| 
A|---------------------------------------------------------------------------| 
E|--6-6----6-6---6-6---6-6---6-6-----6-6---6-6---6-6---6---6-----------------| 

 (3x              ) 
e|----------------|-----------------------------------------------------------| 
B|----------------|-----------------------------------------------------------| 
G|----------------|-----------------------------------------------------------| 
D|----------------|------5*h6p5-3---------------------------------------------| 
A|------------0-1-|----3----------6-------------------------------------------| 
E|--1-1-4-1-4-----|--4--------------------------------------------------------| 

e|-----------------------------------------------------------8-9-10----------| 
B|----------------9-------------------------------11-------------------------| 
G|------6---8p6---------5*h6p5---------8---10p8------10-8-10-----------------| 
D|--6-6---6-----6---6-6--------6---8-8---8------8----------------------------| 
A|---------------------------------------------------------------------------| 
E|---------------------------------------------------------------------------| 
 (16x  ) 
e|-----|--------------------------------------------------------------------| 
B|-----|--------------------------------------------------------------------| 
G|--8--|--5-----5-----5-5---------------------------------------------------| 
D|--10-|--5-----5-----5-5---------------------------------------------------| 
A|-----|--3-3-3-3-3-3-3-3---------------------------------------------------| 
E|-----|--------------------------------------------------------------------| 

Chorus 2 
e|-------------------------------------------------------------------------------------| 
B|-------------------------------------------------------------------------------------| 
G|--8--8--------8-------10-10-------10------12-12-------12------13-13-------13-13------| 
D|--10-10-10-10-10-10---10-10-10-10-10-10---13-13-13-13-13-13---13-13-13-13-13-13------| 
A|-------------------------------------------------------------------------------------| 
E|-------------------------------------------------------------------------------------| 

e|-------------------------------------------------------------------------------------| 
B|-------------------------------------------------------------------------------------| 
G|--8--8--------8-------10-10-------10------12-12-------12------15-15-------15-15------| 
D|--10-10-10-10-10-10---10-10-10-10-10-10---13-13-13-13-13-13---17-17-17-17-17-17------| 
A|-------------------------------------------------------------------------------------| 
E|-------------------------------------------------------------------------------------| 

e|-------------------------------------------------------------------------------------| 
B|-------------------------------------------------------------------------------------| 
G|--8--8--------8-------10-10-------10------12-12-------12------13-13-------13-13------| 
D|--10-10-10-10-10-10---10-10-10-10-10-10---13-13-13-13-13-13---13-13-13-13-13-13------| 
A|-------------------------------------------------------------------------------------| 
E|-------------------------------------------------------------------------------------| 

e|-------------------------------------------------------------------------------------| 
B|-------------------------------------------------------------------------------------| 
G|--8--8--------8-------10-10-------10------12-12-------12------13-13-13-13-13-13-13---| 
D|--10-10-10-10-10-10---10-10-10-10-10-10---13-13-13-13-13-13---13-13-13-13-13-13-13---| 
A|-------------------------------------------------------------------------------------| 
E|-------------------------------------------------------------------------------------| 

 (2x                                                                         ) 
e|---------------------------------------------------------------------------| 
B|---------------------------------------------------------------------------| 
G|--------------------------------6-6-----6-----8-8-----8--------------------| 
D|--------------------------------6-6-----6-----8-8-----8--------------------| 
A|------------0-1-----------0-1---4-4-4-4-4-4-4-6-6-6-6-6-6-6----------------| 
E|--1-1-4-1-4-----1-1-4-1-4--------------------------------------------------| 

e|--20-19-18-16(SHRED IT)--15-16-15------------------------------------------| 
B|----------------------------------16-18----16------------------------------| 
G|----------------------------------------17----17-16-15---------------------| 
D|-------------------------------------------------------18-18*--------------| 
A|---------------------------------------------------------------------------| 
E|---------------------------------------------------------------------------| 

e|--------------------16----18----16-----------------------------------------| 
B|--------18----20----------------------20-18-16--------------18-20-21-------| 
G|--17-17----17----17----17----17----17-----------18-17-18-20----------------| 
D|---------------------------------------------------------------------------| 
A|---------------------------------------------------------------------------| 
E|---------------------------------------------------------------------------| 


e|--20brb-p18-21b~-----------------------------------------------------------| 
B|---------------------------------------------------------------------------| 
G|---------------------------------------------------------------------------| 
D|---------------------------------------------------------------------------| 
A|---------------------------------------------------------------------------| 
E|---------------------------------------------------------------------------| 

e|---------------------------------------------------------------------------| 
B|---------------------------------------------------------------------------| 
G|-------6-----6-----6-----6----8/6------6-----6-----6-----8---6-------------| 
D|-------6-----6-----6-----6----8/6------6-----6-----6-----8---6-------------| 
A|---------------------------------------------------------------------------| 
E|--6-6----6-6---6-6---6-6---6-6-----6-6---6-6---6-6---6-6---6---------------| 

 (3x              ) 
e|----------------|-----------------------------------------------------------| 
B|----------------|-----------------------------------------------------------| 
G|----------------|-----------------------------------------------------------| 
D|----------------|------5h6p5-3----------------------------------------------| 
A|------------0-1-|----3----------6-------------------------------------------| 
E|--1-1-4-1-4-----|--4--------------------------------------------------------| 

e|------------------9-----10-----9----------------------8h11p8-------------------| 
B|----------9---------9------9-----9------9-----8h9p8------------9h11p9---8h9----| 
G|--6---8---------------8------8--------8-----8-------------------------------8--| 
D|----6---6---6---------------------6/8-----8---------8--------8-----------------| 
A|-------------------------------------------------------------------------------| 
E|-------------------------------------------------------------------------------| 

 (16x  ) 
e|-----|--------------------------------------------------------------------| 
B|-----|--------------------------------------------------------------------| 
G|--8--|--5-----5-----5-5---------------------------------------------------| 
D|--10-|--5-----5-----5-5---------------------------------------------------| 
A|-----|--3-3-3-3-3-3-3-3---------------------------------------------------| 
E|-----|--------------------------------------------------------------------| 

JAZZY PART 
e|---------------------------------------------------------------------------| 
B|---------------------------------------------------------------------------| 
G|--8-8\7----6---6-----6---6-----5---5---------------------------------------| 
D|--7-7\6----6---6-----5---5-----5---5---------------------------------------| 
A|--8-8\7-----------6----6---------------------------------------------------| 
E|--------6----6--------------4----4----3------------------------------------| 

e|---------------------------------------------------------------------------| 
B|---------------------------------------------------------------------------| 
G|----------6--6-----------8--8----------------------------------------------| 
D|----------6--6-----------8--8-------------3--3-----------------------------| 
A|----------4--4-4-4-4-4-4-6--6-6-6-6-6-6-6-3--3-------------3-3-3-----------| 
E|--13\\\\\---------------------------------1--1-1-1-1-1-1-1-1-1-1-----------| 

Chorus 3 
e|-------------------------------------------------------------------------------------| 
B|-------------------------------------------------------------------------------------| 
G|--8--8--------8-------10-10-------10------12-12-------12------13-13-------13-13------| 
D|--10-10-10-10-10-10---10-10-10-10-10-10---13-13-13-13-13-13---13-13-13-13-13-13------| 
A|-------------------------------------------------------------------------------------| 
E|-------------------------------------------------------------------------------------| 

e|-------------------------------------------------------------------------------------| 
B|-------------------------------------------------------------------------------------| 
G|--8--8--------8-------10-10-------10------12-12-------12------15-15-------15-15------| 
D|--10-10-10-10-10-10---10-10-10-10-10-10---13-13-13-13-13-13---17-17-17-17-17-17------| 
A|-------------------------------------------------------------------------------------| 
E|-------------------------------------------------------------------------------------| 

e|-------------------------------------------------------------------------------------| 
B|-------------------------------------------------------------------------------------| 
G|--8--8--------8-------10-10-------10------12-12-------12------13-13-------13-13------| 
D|--10-10-10-10-10-10---10-10-10-10-10-10---13-13-13-13-13-13---13-13-13-13-13-13------| 
A|-------------------------------------------------------------------------------------| 
E|-------------------------------------------------------------------------------------| 

e|-------------------------------------------------------------------------------------| 
B|-------------------------------------------------------------------------------------| 
G|--8--8--------8-------10-10-------10------12-12-------12------13-13-13-13-13-13-13---| 
D|--10-10-10-10-10-10---10-10-10-10-10-10---13-13-13-13-13-13---13-13-13-13-13-13-13---| 
A|-------------------------------------------------------------------------------------| 
E|-------------------------------------------------------------------------------------| 

e|---------------------------------------------------------------------------| 
B|-----------------------------------4---4-5-6-------------------------------| 
G|---------------------------------5---5-------3*brb-0h1p0-------------------| 
D|-------------------------------1-------------------------3-1---------------| 
A|------------0-1-----------0-1----------------------------------------------| 
E|--1-1-4-1-4-----1-1-4-1-4--------------------------------------------------| 

 (3x                                                                         ) 
e|---------------------------------------------------------------------------| 
B|---------------------------------------------------------------------------| 
G|--------------------------------6-6-----6-----8-8-----8--------------------| 
D|--------------------------------6-6-----6-----8-8-----8--------------------| 
A|------------0-1-----------0-1---4-4-4-4-4-4-4-6-6-6-6-6-6-6----------------| 
E|--1-1-4-1-4-----1-1-4-1-4--------------------------------------------------| 


e|---------------------------------------------------------------------------| 
B|------------------------9p8------------------------------------------------| 
G|--6-6-----6-----8-8---------8----------------------------------------------| 
D|--6-6-----6-----8-8-----------3~~~~~~~~~~~~~~~~~~~~~~~~~~~~~~~~~~~~~~~~~~~~| 
A|--4-4-4-4-4-4-4-6-6-6-6-------3~~~~~~~~~~~~~~~~~~~~~~~~~~~~~~~~~~~~~~~~~~~~| 
E|------------------------------1~~~~~~~~~~~~~~~~~~~~~~~~~~~~~~~~~~~~~~~~~~~~| 

roll up this ad to continue

share this page

See Also: