E-Chords
Hanoi Rock

Dont you leave me(Tabs)

Hanoi Rock

Key: D

roll up this ad to continue

        Intro riff: 
   D            Bm 
|----2------|-----2---------| 
|---3--3----|------3--------| 
|--2----2-2-|---4---4--4---#| 
|-0------0--|--4-----4-----#| 
|-----------|-2-------------| 
|-----------|---------------| 
    D            A 
The nights are wearing me down 
|----0-------|---------------| 
|---3--3-----|---------------| 
|--2----2-2--|--....(etc)----| 
|-0------0---|---------------| 
|------------|---------------| 
|------------|---------------| 

|------------------| 
|------------------| 
|-9h11-9-----------| 
|--------11r9s7-9--| 
|------------------| 
|------------------| 

          Bm                      G 
And it's hard to get through the day 
Bm                     A                       D            A 
'Cos I need you right now and right now you're so far away 
D            A 
I guess that I should have known  
|---bassline 1--| 
|---------------| 
|---------------| 
|---------------| 
|-0--0-1-2------| 
|---4-----------| 
Bm                    G 
 That'll end that this way (?) 
Bm                       A                          D          A 
 But I swear I'll come home and then nothing will drag me away 

Chorus: 
D               Bm 
Don't you ever leave me baby 
D               Bm 
Don't you ever leave me now 
D               Bm 
Don't you ever leave me baby 
D                        Bm 
If you'll leave me you will kill me now 

The 'rap' part: 
A-G  Bm  A   
G    Bm  A 

D                A               bassline 1 
The lights are slowly going down 
Bm             G         Bm 
On Lexington Avenue and me,  
Bm        A 
I'm all alone 
              D                         A 
Feeling the tears running down from my eyes 
D            A                bassline 1                              
The subway train is passing by 
Bm         G  
Driving into the darkness 
Bm       A                    D                 A 
I jump inside 'cos I've got nowhere to sleep tonight 

Chorus: 
D               Bm 
Don't you ever leave me baby 
D               Bm 
Don't you ever leave me now 
D               Bm 
Don't you ever leave me baby 
D                        Bm 
If you'll leave me you will kill me now 

The 'rap' part revisited: 
A-G  Bm  A   
G    Bm  A 

Guitar solos: 
2x verse chords  
(I can't figure it out from the album well enough so I just 
improvise something D-scale with lots of Andy-style bending and  
hammering. If someone figures it out, please send me and  
I'll update it here) 

Ending: 
repeat Chorus & fade out 

**************** 
*Juhani Mistola********** 
*[email protected]****** 
*www.uusikaupunki.fi/~jumisto*  
********** 

        
share this page

See Also: