E-Chords
Hannah Trigwell

Stay With Me(Tabs)

Hannah Trigwell

roll up this ad to continue

Key: F#
  
  


INTRO  

     Am                             C   (strum)  
e|----0-----------------------------0-----------------------------------------|  
B|----1-----------------------------1-----------------------------------------|  
G|----0h2--p0-h4-p2-p0-h5-p2-p0-----0-----------------------------------------|  
D|----0h2---------------------------0h2---------------------------------------|  
A|----0-----------------------------3-----------------------------------------|  
E|----------------------------------------------------------------------------|  

     Am                            C   (Strum)  
e|----0----------------------------0-------------------------------------------|  
B|----1----------------------------1-------------------------------------------|  
G|----0h2--p0-h4-p2-p0-h5-/10\9----0-------------------------------------------|  
D|----0h2--------------------------0h2----------h5-p2-p0----h2-----------------|  
A|----0----------------------------3---------------------h5--------------------|  
E|-----------------------------------------------------------------------------|  


     Am                             C   (strum)  G                         Fmaj7  
e|----0-----------------------------0------------0-----s-------------------0-------0------|  
B|----1-----------------------------1------------1-----s-------------------1-------1------|  
G|----0h2--p0-h4-p2-p0-h5-p2-p0-----0------------0-----s--------------h4---0h2-----2p0----|  
D|----0h2---------------------------0h2----------0-----s----h5-p2-h5-------0h3-----3p0----|  
A|----0-----------------------------3------------2-----s-------------------0-------0------|  
E|-----------------------------------------------3-----s----------------------------------|  


verse 1  

     Am                          Fmaj7                 C(line 1&3)             C(line 2&4)  
e|----------------------------------------------------------------------|   ----------------|  
B|---1-----------------------------1--------------------1-------1p0-----|   ---1------------|  
G|---2-----------------------------2----------------------0-------------|   -----0----------|  
D|---------------------------------3------------------------2-----------|   -------2-2p0----|  
A|---0--------------------------------------------------3---------------|   ---3------------|  
E|----------------------------------------------------------------------|   ----------------|  

1    || Guess it's true I'm not |good| at a one night |stand|  
2    || But   I    still   need  |love|  cause   I'm    just                 |human|  
3    || These   nights   never  |seem|  to  go   to   |plan|  
4    || I  don't  want  you  to |leave|   will    you    hold    my          |hand| (oh won't you)  


Chorus 1  

                  Am        Fmaj7        C                   Am       Fmaj7       C  
e|----------------0---------0------------0-------------------0--------0-----------0----------------------|  
B|----------------1---------1------------1-------------------1--------1-----------1----------------------|  
G|----------------0h2-------2------------0-------------------0h2------2-----------0----------------------|  
D|--(2p0)---------0h2-------3------------0h2-----------------0h2------3-----------0h2----h5-p2-p0----h2--|  
A|----------------0---------0------------3-------------------0--------0-----------3---------------h5-----|  
E|-------------------------------------------------------------------------------------------------------|  
    
    Oh won't you, ||  Stay ||   With    |Me|   Cause you're, || all  ||       I |need|          (This ain't)  

              
                    Am          Fmaj7           C  
e|------------------0-------------0-------------0-------------------------------|  
B|------------------1-------------1-------------1-------------------------------|  
G|------------------0h2-----------2-------------0-------------------------------|  
D|------------------0h2-----------3-------------0h2-----------------------------|  
A|------------------0-------------0-------------3-------------------------------|  
E|------------------------------------------------------------------------------|  
       This ain't |love|, it's   || clear to  |see|  


                    Am          Fmaj7           C  
e|------------------0-------------0-------------0-------0----------0-0-------------|  
B|------------------1-------------1-------------1-------1----------1-1-------------|  
G|------------------0h2-----------2-------------0-------0--0-------0-0-------------|  
D|------------------0h2-----------3-------------0h2--------0h2-----2-0-------------|  
A|------------------0-------------0-------------3----------3-------3-0-------------|  
E|---------------------------------------------------------------------------------|  
        but darling,||    Stay   ||    With    |Me|  
    

verse 2  
      
       Am                               Fmaj7           C       (strum)  
e|-----0-----x--------------------------0---------------0-------------------------0-0-------------------|  
B|-----1-----x--------------------------1---------------1-------------------------1-1-------------------|  
G|-----0h2---x--------------------------2---------------0-------------------------0-0-------------------|  
D|-----0h2---x--------------------------3---------------0h2-----------------------2-0-------------------|  
A|-----0-----x--------------------------0---------------3-------------------------3-0-------------------|  
E|------------------------------------------------------------------------------------------------------|  
               Why     am     I       |so|       emo-|tional|  
               No it's not a good look,||gain some self|-|control  


       Am                     Fmaj7                C           (Strum)  
e|-----0----------------------0--------------------0---------------------------------------|  
B|-----1----------------------1--------------------1---------------------------------------|  
G|-----2----------------------2--------------------0---------------------------------------|  
D|-----2----------------------3--------------------0h2-------------------------------------|  
A|-----0----------------------0--------------------3---------------------------------------|  
E|-----------------------------------------------------------------------------------------|  
       ||Deep    down   I   |know| this   never  |works|  
       ||But you can lay with||me, so it doesn't |hurt|  


Chorus 2  

                  Am   (D D U)    Fmaj7     C           (Strum)  
e|----------------0-----0-0-0-x---0---------0---------------------------------------|  
B|----------------1-----1-1-1-x---1---------1---------------------------------------|  
G|----------------0h2---2-2-2-x---2---------0---------------------------------------|  
D|----------------0h2---2-2-2-x---3---------0h2-------------------------------------|  
A|----------------0-----0-0-0-x---0---------3---------------------------------------|  
E|----------------------------------------------------------------------------------|  
    Oh won't you,       Stay      with      me  
    Cause you're,        all      I         need  
    And this ain't love, it's     clear to  see  
    But darling,        Stay      with      me  


  BRIDGE   

                   Am      Fmaj7            C  
e|-----------------0---------0--------------0--------------------------------|  
B|-----------------1---------1--------------1--------------------------------|  
G|-----------------2---------2--------------0--------------------------------|  
D|-----------------2---------3--------------2--------------------------------|  
A|-----------------0---------0--------------3--------------------------------|  
E|---------------------------------------------------------------------------|  
       ooh woah   |oh|     |oh|            |ooh|   
    
                   Am      Fmaj7            C  
e|-----------------0---------0--------------0--------------------------------|  
B|-----------------1---------1--------------1--------------------------------|  
G|-----------------2---------2--------------0--------------------------------|  
D|-----------------2---------3--------------0h2------------------------------|  
A|-----------------0---------0--------------3--------------------------------|  
E|---------------------------------------------------------------------------|  
     oh won't you |stay|    ||Oh won't you |stay|  


Chorus 3   

                      Am      Fmaj7      C               
e|-------------------------------------------------------|     
B|--------------------1-------1----------1-------1p0-----|     
G|--------------------0h2-----2------------0-------------|     
D|----------------------------3--------------2-----------|    
A|--------------------0------------------3---------------|     
E|-------------------------------------------------------|     

        Oh won't you || stay || with me ||      cause you're  
   

                     Am      Fmaj7      C               
e|-------------------------------------------------------|     
B|--------------------0h1-----1----------1---------------|     
G|--------------------2-------2------------0-------------|     
D|----------------------------3--------------2---2p0-----|    
A|--------------------0------------------3---------------|     
E|-------------------------------------------------------|    
                     || All  ||  I   ne-|ed|     and they say  

                      Am           Fmaj7       C               
e|------------------------------------------------------------|     
B|--------------------1------------1----------1-------1p0-----|     
G|--------------------0h2----------2------------0-------------|     
D|--------------------------- -----3--------------2-----------|    
A|--------------------0-----------------------3---------------|     
E|------------------------------------------------------------|   
                      ||love it's || clear to ||see  but darling,  

                     Am      Fmaj7      C               
e|-------------------------------------------------------|     
B|--------------------0h1-----1----------1---------------|     
G|--------------------2-------2------------0-------------|     
D|----------------------------3--------------2---2p0-----|    
A|--------------------0------------------3---------------|     
E|-------------------------------------------------------|    
                      || Stay||  with   |me|  


OUTRO  

     Am                             C   (strum)  
e|----0-----------------------------0-----------------------------------------|  
B|----1-----------------------------1-----------------------------------------|  
G|----0h2--p0-h4-p2-p0-h5-p2-p0-----0-----------------------------------------|  
D|----0h2---------------------------0h2---------------------------------------|  
A|----0-----------------------------3-----------------------------------------|  
E|----------------------------------------------------------------------------|  
               Stay      with       me  
     Am                            C   (Strum)  
e|----0----------------------------0-------------------------------------------|  
B|----1----------------------------1-------------------------------------------|  
G|----0h2--p0-h4-p2-p0-h5-/10\9----0-------------------------------------------|  
D|----0h2--------------------------0h2----------h5-p2-p0----h2-----------------|  
A|----0----------------------------3---------------------h5--------------------|  
E|-----------------------------------------------------------------------------|  
              Stay    with         me  

     Am                             C   (strum)  G                         Fmaj7           C   
e|----0-----------------------------0------------0-----s-------------------0-------0-------0--------|  
B|----1-----------------------------1------------1-----s-------------------1-------1-------1--------|  
G|----0h2--p0-h4-p2-p0-h5-p2-p0-----0------------0-----s--------h4---------0h2-----2p0-----0--------|  
D|----0h2---------------------------0h2----------0-----s-------------------0h3-----3p0-----0h2------|  
A|----0-----------------------------3------------2-----s----h5-------------0-------0-------3--------|  
E|-----------------------------------------------3-----s--------------------------------------------|  

              stay      with        me      won't you                     stay    with     me  
    

  
share this page