E-Chords
Hannah Trigwell

Come Home Soon(Tabs)

Hannah Trigwell

roll up this ad to continue



Intro: 
  Oh no, no, no, no, no 
e|---------------------------------------------------------------------------| 
B|----3---3---3-------3---3---3-------3---3---3-------3---3---3--------------| 
G|--0---0---0---0---0---0---0---0---0---0---0---0---0---0---0---0------------| 
D|2--------------------------------------------------------------------------| 
A|----------------2---------------3---------------3--------------------------| 
E|---------------------------------------------------------------------------| 

  Oh, no, no 
e|---------------------------------------------------------------------------| 
B|----3---3---3-------3---3---3-------3---3---3-------3---3---3--------------| 
G|--0---0---0---0---0---0---0---0---0---0---0---0---0---0---0---0------------| 
D|2--------------------------------------------------------------------------| 
A|----------------2---------------3---------------3--------------------------| 
E|---------------------------------------------------------------------------| 


verse 1: 
  I never thought I'd live my life 
e|---------------------------------------------------------------------------| 
B|----3---3---3-------3---3---3-------3---3---3-------3---3---3--------------| 
G|--0---0---0---0---0---0---0---0---0---0---0---0---0---0---0---0------------| 
D|2--------------------------------------------------------------------------| 
A|----------------2---------------3---------------3--------------------------| 
E|---------------------------------------------------------------------------| 

  So full of doubt and compromise 
e|---------------------------------------------------------------------------| 
B|----3---3---3-------3---3---3-------3---3---3-------3---3---3--------------| 
G|--0---0---0---0---0---0---0---0---0---0---0---0---0---0---0---0------------| 
D|2--------------------------------------------------------------------------| 
A|----------------2---------------3---------------3--------------------------| 
E|---------------------------------------------------------------------------| 

  But I'd do it all for you 
e|---------------------------------------------------------------------------| 
B|----3---3---3-------3---3---3-------3---3---3-------3---3---3--------------| 
G|--0---0---0---0---0---0---0---0---0---0---0---0---0---0---0---0------------| 
D|2--------------------------------------------------------------------------| 
A|----------------2---------------3---------------3--------------------------| 
E|---------------------------------------------------------------------------| 

  I'd do it all for you 
e|---------------------------------------------------------------------------| 
B|----3---3---3-------3---3---3-------3---3---3-------3----------------------| 
G|--0---0---0---0---0---0---0---0---0---0---0---0---0------------------------| 
D|2--------------------------------------------------------------------------| 
A|----------------2---------------3---------------3--------------------------| 
E|---------------------------------------------------------------------------| 


verse 2: 
  I never wanted these words to fall 
e|---------------------------------------------------------------------------| 
B|----3---3---3-------3---3---3-------3---3---3-------3---3---3--------------| 
G|--0---0---0---0---0---0---0---0---0---0---0---0---0---0---0---0------------| 
D|2--------------------------------------------------------------------------| 
A|----------------2---------------3---------------3--------------------------| 
E|---------------------------------------------------------------------------| 

  Keep it inside these ten foot walls 
e|---------------------------------------------------------------------------| 
B|----3---3---3-------3---3---3-------3---3---3-------3---3---3--------------| 
G|--0---0---0---0---0---0---0---0---0---0---0---0---0---0---0---0------------| 
D|2--------------------------------------------------------------------------| 
A|----------------2---------------3---------------3--------------------------| 
E|---------------------------------------------------------------------------| 

  And I'd do it all for you 
e|---------------------------------------------------------------------------| 
B|----3---3---3-------3---3---3-------3---3---3-------3---3---3--------------| 
G|--0---0---0---0---0---0---0---0---0---0---0---0---0---0---0---0------------| 
D|2--------------------------------------------------------------------------| 
A|----------------2---------------3---------------3--------------------------| 
E|---------------------------------------------------------------------------| 

  I'd do it all for you 
e|---------------------------------------------------------------------------| 
B|----3---3---3-------3---3---3-------3---3---3-------3----------------------| 
G|--0---0---0---0---0---0---0---0---0---0---0---0---0---0---0---0------------| 
D|2--------------------------------------------------------------------------| 
A|----------------2---------------3---------------3-------3---2--------------| 
E|---------------------------------------------------------------------------| 


Chorus: 
  They say if you love someone enough you've gotta let them go 
e|---------------------------------------------------------------------------| 
B|----3---3---3-------3---3---3-------3---3---3-------3-----3----------------| 
G|--0---0---0---0---0---0---0---0---0---0---0---0---0-----0-----0------------| 
D|---------------------------------------------------------------------------| 
A|3---------------2---------------0---------------------0-----2--------------| 
E|------------------------------------------------3--------------------------| 

  But I'll be feeling out of touch with everything I know 
e|---------------------------------------------------------------------------| 
B|----3---3---3-------3---3---3-------3---3---3-------3-----3----------------| 
G|--0---0---0---0---0---0---0---0---0---0---0---0---0-----0-----0------------| 
D|---------------------------------------------------------------------------| 
A|3---------------2---------------0---------------------0-----2--------------| 
E|------------------------------------------------3--------------------------| 

  Just come home soon 
e|---------------------------------------------------------------------------| 
B|----3-----3---3-----3-----3---3-----3-----3---3-----3-----3---3------------| 
G|--0-----0---0-----0-----0---0-----0-----0---0-----0-----0---0--------------| 
D|---------------------------------------------------------------------------| 
A|----------------2-----3-------------------------2-----3--------------------| 
E|3-----2-------------------------3-----2------------------------------------| 

  Just come home soon 
e|---------------------------------------------------------------------------| 
B|----3-----3---3-----3-----3---3-----3-----3---3-----3----------------------| 
G|--0-----0---0-----0-----0---0-----0-----0---0-----0---0--------------------| 
D|---------------------------------------------------------------------------| 
A|----------------2-----3-------------------------2--------------------------| 
E|3-----2-------------------------3-----2------------------------------------| 


verse 3: 
  Oh, and you'll leave me high and dry 
e|---------------------------------------------------------------------------| 
B|----3---3---3-------3---3---3-------3---3---3-------3---3---3--------------| 
G|--0---0---0---0---0---0---0---0---0---0---0---0---0---0---0---0------------| 
D|2--------------------------------------------------------------------------| 
A|----------------2---------------3---------------3--------------------------| 
E|---------------------------------------------------------------------------| 

  You'll have a new life and I'll have mine 
e|---------------------------------------------------------------------------| 
B|----3---3---3-------3---3---3-------3---3---3-------3---3---3--------------| 
G|--0---0---0---0---0---0---0---0---0---0---0---0---0---0---0---0------------| 
D|2--------------------------------------------------------------------------| 
A|----------------2---------------3---------------3--------------------------| 
E|---------------------------------------------------------------------------| 

  But I'll do it all for you 
e|---------------------------------------------------------------------------| 
B|----3---3---3-------3---3---3-------3---3---3-------3---3---3--------------| 
G|--0---0---0---0---0---0---0---0---0---0---0---0---0---0---0---0------------| 
D|2--------------------------------------------------------------------------| 
A|----------------2---------------3---------------3--------------------------| 
E|---------------------------------------------------------------------------| 

  I'll do it all for you 
e|---------------------------------------------------------------------------| 
B|----3---3---3-------3---3---3-------3---3---3-------3----------------------| 
G|--0---0---0---0---0---0---0---0---0---0---0---0---0---0--------------------| 
D|2--------------------------------------------------------------------------| 
A|----------------2---------------3---------------3--------------------------| 
E|---------------------------------------------------------------------------| 


Chorus: 
  They say if you love someone enough you've gotta let them go 
e|---------------------------------------------------------------------------| 
B|----3---3---3-------3---3---3-------3---3---3-------3-----3----------------| 
G|--0---0---0---0---0---0---0---0---0---0---0---0---0-----0-----0------------| 
D|---------------------------------------------------------------------------| 
A|3---------------2---------------0---------------------0-----2--------------| 
E|------------------------------------------------3--------------------------| 

  But I'll be feeling out of touch with everything I know 
e|---------------------------------------------------------------------------| 
B|----3---3---3-------3---3---3-------3---3---3-------3-----3----------------| 
G|--0---0---0---0---0---0---0---0---0---0---0---0---0-----0-----0------------| 
D|---------------------------------------------------------------------------| 
A|3---------------2---------------0---------------------0-----2--------------| 
E|------------------------------------------------3--------------------------| 

  Just come home soon 
e|---------------------------------------------------------------------------| 
B|----3-----3---3-----3-----3---3-----3-----3---3-----3-----3---3------------| 
G|--0-----0---0-----0-----0---0-----0-----0---0-----0-----0---0--------------| 
D|---------------------------------------------------------------------------| 
A|----------------2-----3-------------------------2-----3--------------------| 
E|3-----2-------------------------3-----2------------------------------------| 

  Just come home soon 
e|---------------------------------------------------------------------------| 
B|----3-----3---3-----3-----3---3-----3-----3---3-----3-----3---3------------| 
G|--0-----0---0-----0-----0---0-----0-----0---0-----0-----0---0--------------| 
D|---------------------------------------------------------------------------| 
A|----------------2-----3-------------------------2-----3--------------------| 
E|3-----2-------------------------3-----2------------------------------------| 


verse 4: 
  Do you remember under that old tree? You asked me if you were worth it 
e|---------------------------------------------------------------------------| 
B|----3---3---3-------3---3---3-------3---3---3-------3-----3----------------| 
G|--0---0---0---0---0---0---0---0---0---0---0---0---0-----0-----0------------| 
D|---------------------------------------------------------------------------| 
A|3---------------2---------------0---------------------0-----2--------------| 
E|------------------------------------------------3--------------------------| 

  And I said, 'Please of course you are, of course you are' 
e|---------------------------------------------------------------------------| 
B|----3---3---3-------3---3---3-------3---3---3-------3-----3----------------| 
G|--0---0---0---0---0---0---0---0---0---0---0---0---0-----0-----0------------| 
D|---------------------------------------------------------------------------| 
A|3---------------2---------------0---------------0*----0-----2--------------| 
E|---------------------------------------------------------------------------| 

  You can have every part of me, cause I know for sure that we'll always be perfect 
e|---------------------------------------------------------------------------| 
B|----3---3---3-------3---3---3-------3---3---3-------3-----3----------------| 
G|--0---0---0---0---0---0---0---0---0---0---0---0---0-----0-----0------------| 
D|---------------------------------------------------------------------------| 
A|3---------------2---------------0---------------------0-----2--------------| 
E|------------------------------------------------3--------------------------| 

  Of course you are, of course you are 
e|---------------------------------------------------------------------------| 
B|----3---3---3-------3---3---3-------3---3---3-------3-----3----------------| 
G|--0---0---0---0---0---0---0---0---0---0---0---0---0-----0-----0------------| 
D|---------------------------------------------------------------------------| 
A|3---------------2---------------0---------------------0-----2--------------| 
E|------------------------------------------------3--------------------------| 


Chorus: 
  They say if you love someone enough you've gotta let them go 
e|---------------------------------------------------------------------------| 
B|----3---3---3-------3---3---3-------3---3---3-------3-----3----------------| 
G|--0---0---0---0---0---0---0---0---0---0---0---0---0-----0-----0------------| 
D|---------------------------------------------------------------------------| 
A|3---------------2-------------------------------------0-----2--------------| 
E|--------------------------------3*--------------3--------------------------| 

  And I'll be feeling out of touch with everything I know 
e|---------------------------------------------------------------------------| 
B|----3---3---3-------3---3---3-------3---3---3-------3-----3----------------| 
G|--0---0---0---0---0---0---0---0---0---0---0---0---0-----0-----0------------| 
D|---------------------------------------------------------------------------| 
A|3---------------2---------------0---------------------0-----2--------------| 
E|------------------------------------------------3--------------------------| 

  Just come home soon 
e|---------------------------------------------------------------------------| 
B|----3-----3---3-----3-----3---3-----3-----3---3-----3-----3---3------------| 
G|--0-----0---0-----0-----0---0-----0-----0---0-----0-----0---0--------------| 
D|---------------------------------------------------------------------------| 
A|----------------2-----3-------------------------2-----3--------------------| 
E|3-----2-------------------------3-----2------------------------------------| 

  Just come home soon 
e|---------------------------------------------------------------------------| 
B|----3-----3---3-----3-----3---3-----3-----3---3-----3----------------------| 
G|--0-----0---0-----0-----0---0-----0-----0---0------------------------------| 
D|---------------------------------------------------------------------------| 
A|----------------2-----3-------------------------0h2---3--------------------| 
E|3-----2-------------------------3-----2------------------------------------| 





Notes: 
There are a few variations that I hear, noted below.  These may just be mistakes made while recording,  
   or may be purposeful distinctions.  I usually forget when/where to play them while playing  
   the song, and just play the standard pattern - but for accuracy's sake, they  
   are noted in the tabs above. 
   (Asterisks mark the variations in the tab, described below, relative to the normal pattern.) 
 *verse 4, second line: the 4th 'bass' note in the line is usually played  
   on the 3rd fret of the 6th string, but in this place seems to be an open 5th string. 
 *Third Chorus, first line: the 3rd 'bass' note is usually played as an open 5th string, 
   but in this case is played on the 3rd fret of the 6th string. 

Here is the link to the only recording of the song that I have been able to find:  
  http://www.thesixtyone.com/s/iOTsB6rsb2M/ 



Thank You: 
A special thanks to Amy for figuring out the basis of this song and teaching it to me, and to Michael for  
   encouraging me to write and share this tab. 
share this page

See Also: