E-Chords
Hammer No More the Fingers

roll up this ad to continue

Intro  (2x) 

G|--------------------------------------------------------------------------| 
D|--------------------------------------------------------------------------| 
A|-----2-2-----0-0----------------------------------------------------------| 
E|-2-2-----3-3--------------------------------------------------------------| 

Verse   (3x)  
                          Play this the 4th time 
G|-------------------------------I-------------------------------------------| 
D|-------------------------------I-------------------------------------------| 
A|-----2-2-----0-0---------------I-----2-2------00-2-4-7---------------------| 
E|-2-2-----3-3-------------------I-2-2-----3-3-------------------------------| 

Chorus (2x) 
                                                Play only 1st time 
G|---------------------------------------------------------I----------------| 
D|---------------------------------------------------------I----------------| 
A|5-555555--4-4444444/77777777--4-444444--5-555555-4-444444I/-9-98-87-76-65-| 
E|---------------------------------------------------------I----------------| 

Verse  

G|-----------------2-2------------------------------------------------------| 
D|----------------2---2-----------------------------------------------------| 
A|-----2-2------0------0----------------------------------------------------| 
E|-2-2-----3-3--------------------------------------------------------------| 

Verse  (3x)  
                          Play this the 4th time 
G|-------------------------------I-------------------------------------------| 
D|-------------------------------I-------------------------------------------| 
A|-----2-2-----0-0---------------I-----2-2------00-2-4-7---------------------| 
E|-2-2-----3-3-------------------I-2-2-----3-3-------------------------------| 

Chorus (2x) 
                                                Play only 1st time 
G|---------------------------------------------------------I----------------| 
D|---------------------------------------------------------I----------------| 
A|5-555555--4-4444444/77777777--4-444444--5-555555-4-444444I/-9-98-87-76-65-| 
E|---------------------------------------------------------I----------------| 

Guitar Solo 

1st time 
G|-----I--------------------------------------------------------------------| 
D|-----I--------------------------------------------------------------------| 
A|-9999I-4444-5555-6666-77-88-9999------------------------------------------| 
E|-----I--------------------------------------------------------------------| 

Chorus (3x) 
                                                Play only 1st time 
G|---------------------------------------------------------I----------------| 
D|---------------------------------------------------------I----------------| 
A|5-555555--4-4444444/77777777--4-444444--5-555555-4-444444I/-9-98-87-76-65-| 
E|---------------------------------------------------------I----------------| 

Outro 

G|--------------------------------------------------------------------------| 
D|--------------------------------------------------------------------------| 
A|-----2-2-----0-0------2-2------0-0----------------------------------------| 
E|-2-2-----3-3------2-2------3-3--------------------------------------------| 

G|------------4-----4-------------------------------------------------------| 
D|--4-----4-------4-----5-----5---7-----7-----------------------------------| 
A|------2-------2-----------5---------7-------------------------------------| 
E|----2-------------------3---------5---------------------------------------| 

G|------------4-----4--------------------------------------------------------| 
D|--4-----4-------4-----5-----5---6~--7~-------------------------------------| 
A|------2-------2-----------5------------------------------------------------| 
E|----2-------------------3--------------------------------------------------| 
 
share this page

See Also: