E-Chords
Halsey

Ghost (acoustic)(Tabs)

Halsey

roll up this ad to continue

 

 
 

tab relative to capo 

Tuning: standard 

Intro/Verse/Chorus (play two times through for the intro) 

e|----3-3------3-3----3-3---3-3----------------------------------------------| 
B|----3-3------3-3----3-3---3-3----------------------------------------------| 
G|---------------------------------------------------------------------------| 
D|------------------------0--------------------------------------------------| 
A|--2----0h2-3-----0---------------------------------------------------------| 
E|------------------3--------------------------------------------------------| 


This goes on for the entire song, but for the bridge you can play something a 
little like this that sounds a little more accurate  
e|---3-------3----------3-------3--------3-------3-------3------3------------| 
B|-------3-------3---3-------3------3--------3--------3------3---------------| 
G|---------------------------------------------------------------------------| 
D|-------------------------------------------------0---0---0---0-------------| 
A|-2---2---2---2---3---3---3---3---------------------------------------------| 
E|---------------------------------3---3---3---3-----------------------------| 

LYRICS: 
I don't like them innocent 
I don't want no face fresh 
Want them wearing leather 
Begging, let me be your taste test. 
I like the sad eyes, bad guys 
Mouth full of white lies 
Kiss me in the corridor, 
But quick to tell me goodbye. 

You say that you're no good for me 
Cause I'm always tugging at your sleeve 
And I swear I hate you when you leave 
But I like it anyway. 

My ghost 
Where'd you go? 
I can't find you in the body sleeping next to me 
My ghost 
Where'd you go? 
What happened to the soul, that you used, to be? 

You're a Rolling Stone boy 
Never sleep alone boy 
Got a million numbers 
And they're filling up your phone, boy. 
I'm off the deep end, sleeping 
All night through the weekend. 
Saying that I love him but 
I know I'm gonna leave him. 

You say that you're no good for me 
Cause I'm always tugging at your sleeve 
And I swear I hate you when you leave 
But I like it anyway. 

My ghost 
Where'd you go? 
I can't find you in the body sleeping next to me 
My ghost 
Where'd you go? 
What happened to the soul, that you used, to be? 

I'm searching for something that I can't reach. 

My ghost 
Where'd you go? 
I can't find you in the body sleeping next to me 
My ghost 
Where'd you go? 
What happened to the soul, that you used, to be? 

************************************ 

| /   slide up 
| \   slide down 
| h   hammer-on 
| p   pull-off 
| ~   vibrato 
| +   harmonic 
| x   Mute note 
| b   Bend 
| pb  Pre-bend 
| br  Bend release 
| pbr Pre-bend release 
| brb Bend release bend 

************************************ 
share this page

See Also: