E-Chords
Halsey

Crazy Love(Tabs)

Halsey

roll up this ad to continue

Watch the video lesson
Key: D#
Main-Riff 


|-----------------------|----------------------------------------| 
|---4-6-8-6-4---4-6-8-6-|----------------------------------------| 
|-5-----------5---------|----------------------------------------| 
|-----------------------|----------------------------------------| 
|-----------------------|----------------------------------------| 
|-----------------------|----------------------------------------| 



Bridge 


|-----3-----3---------3-----3------------------------------------| 
|---4-----4-----4---4-----4-----4--------------------------------| 
|-5-----5-----5---5-----5-----5----------------------------------| 
|----------------------------------------------------------------| 
|----------------------------------------------------------------| 
|----------------------------------------------------------------| 

Verse 

|----------------------------------------------------------------| 
|----------------------------------------------------------------| 
|----------------------------------------------------------------| 
|----------------------------------------------------------------| 
|---------3---6--------------------------------------------------| 
|-4---1----------------------------------------------------------| 
share this page

See Also: