E-Chords
Hail The Sun

Words Of Gratitude(Tabs)

Hail The Sun

Key: E
Intro
 
Guitar 1 (Left): 
E||---------------------------------------|---------------------------------------| 
B||---------------------------------------|---------------------------------------| 
G||--------------------9h11----11----11~--|--------------------9h11----11----11~--| 
D||------------9/11-----------------------|------------9/11-----------------------| 
A||--2-5-2-0-9--------------10----10------|--2-5-2-0-9--------------10----10------| 
E||-----------------12--------------------|-----------------12--------------------| 
     . . . . .                              . . . . .        


E||---------------------------------------|---------------------------------------| 
B||---------------------------------------|---------------------------------------| 
G||--------------------9h11----11----11~--|--------------------9h11----11~--------| 
D||------------9/11-----------------------|------------9/11-----------------------| 
A||--2-5-2-0-9--------------10----10------|--2-5-2-0-9--------------10------------| 
E||-----------------12--------------------|-----------------12--------------------| 
     . . . . .                              . . . . . 


Guitar 2 (Right): 
E||----------------------| 
B||-----------17~---14~--| 
G||-----14---------------| 
D||--16----16------------| 
A||----------------------| 
E||----------------------| 



Verse 
Guitar 1: 
E||---------------------------------------| 
B||---------------------------------------| 
G||--------------------9h11----11----11~--| 
D||------------9/11-----------------------| x7 
A||--2-5-2-0-9--------------10----10------| 
E||-----------------12--------------------| 
     . . . . . 

E||---------------------------| 
B||---------------------------| 
G||--------------------9h11~--| 
D||------------9/11-----------| 
A||--2-5-2-0-9----------------| 
E||-----------------12--------| 
     . . . . . 


Guitar 2: 
E||----------------------|------------------| 
B||-----------17~---14~--|--------10~---7~--| 
G||-----14---------------|----7-------------| 
D||--16----16------------|--9---9-----------| x4 
A||----------------------|------------------| 
E||----------------------|------------------| 


Guitar 3: 
E||----------|----------------| 
B||----------|----------------| 
G||--14/16~--|--14/16\14-11~--| 
D||--x-/x----|--x-/x-\x--x----| 
A||--12/14~--|--12/14\12-9~---| 
E||----------|----------------| 



Chorus 
Guitar 1: 
E||---------------------------------------------------------------| 
B||--10~-----------------3~--------------7~-----------------------| 
G||--11~-----------------4~--------------4~-----------------9/11--| 
D||--9~------------------2~--------------5~-------------9\7-------| x3 
A||---------------------------------------------------------------| 
E||---------------------------------------------------------------| 


E||-------------------------------------| 
B||--10~-----------------3~-------------| 
G||--11~-----------------4~-------------| 
D||--9~------------------2~-------------| 
A||-------------------------------------| 
E||-------------------------------------| 


Guitar 2: 
E||---------------------------------------------------------------| 
B||-----------17----14---------10----7---------6/7~---------------| 
G||-----14-----------------7---------------4----------------------| 
D||--16----16------------9---9-----------5---5--------------------| x3 
A||---------------------------------------------------------------| 
E||---------------------------------------------------------------| 


E||-------------------------------------| 
B||-----------17----14---------10----7--| 
G||-----14-----------------7------------| 
D||--16----16------------9---9----------| 
A||-------------------------------------| 
E||-------------------------------------| 


Guitar 1/2: 
E||------------| 
B||--------7~--| 
G||------7~----| 
D||----5~------| 
A||--7~--------| 
E||------------| 



Verse 
Guitar 1: 
E||---------------------------------------| 
B||---------------------------------------| 
G||--------------------9h11----11----11~--| 
D||------------9/11-----------------------| x7 
A||--2-5-2-0-9--------------10----10------| 
E||-----------------12--------------------| 
     . . . . . 

E||---------------------------| 
B||---------------------------| 
G||--------------------9h11~--| 
D||------------9/11-----------| 
A||--2-5-2-0-9----------------| 
E||-----------------12--------| 
     . . . . . 


Guitar 2: 
E||----------------------|------------------| 
B||-----------17~---14~--|--------10~---7~--| 
G||-----14---------------|----7-------------| 
D||--16----16------------|--9---9-----------| x4 
A||----------------------|------------------| 
E||----------------------|------------------| 


Guitar 3: 
E||----------|----------------| 
B||----------|----------------| 
G||--14/16~--|--14/16\14-11~--| 
D||--x-/x----|--x-/x-\x--x----| 
A||--12/14~--|--12/14\12-9~---| 
E||----------|----------------| 


Guitar 4: 
E||----------------------|----------------------| 
B||----------------------|----------------------| 
G||----------------------|----7-----------------| 
D||--9-----7---7\5---5~--|--9---9-7---7\5---5~--| x2 
A||----9-----9-----7-----|----------9-----7-----| 
E||----------------------|----------------------| 



Chorus 
Guitar 1: 
E||---------------------------------------------------------------| 
B||--10~-----------------3~--------------7~-----------------------| 
G||--11~-----------------4~--------------4~-----------------9/11--| 
D||--9~------------------2~--------------5~-------------9\7-------| x3 
A||---------------------------------------------------------------| 
E||---------------------------------------------------------------| 


E||-------------------------------------| 
B||--10~-----------------3~-------------| 
G||--11~-----------------4~-------------| 
D||--9~------------------2~-------------| 
A||-------------------------------------| 
E||-------------------------------------| 


Guitar 2: 
E||---------------------------------------------------------------| 
B||-----------17----14---------10----7---------6/7~---------------| 
G||-----14-----------------7---------------4----------------------| 
D||--16----16------------9---9-----------5---5--------------------| x3 
A||---------------------------------------------------------------| 
E||---------------------------------------------------------------| 


E||-------------------------------------| 
B||-----------17----14---------10----7--| 
G||-----14-----------------7------------| 
D||--16----16------------9---9----------| 
A||-------------------------------------| 
E||-------------------------------------| 


Guitar 1/2: 
E||------------| 
B||--------7~--| 
G||------7~----| 
D||----5~------| 
A||--7~--------| 
E||------------| 



Bridge 
Guitar 1 (Tremolo): 
E||-------------------------------------------------------| 
B||--121212121212-101010101010----------------------------| 
G||----------------------------111111111111-999999999999--| 
D||-------------------------------------------------------| 
A||-------------------------------------------------------| 
E||-------------------------------------------------------| 
                              (^11's) 

E||------------------------------------------------------------------| 
B||--121212121212-141414141414-151515151515-17171717171717171717-19--| 
G||------------------------------------------------------------------| 
D||------------------------------------------------------------------| 
A||------------------------------------------------------------------| 
E||------------------------------------------------------------------| 


Guitar 1 (Harmony): 
E||----------------------------------0~---------| 
B||----------------------------------0~---------| 
G||----------------------------------6~---------| 
D||---------------------------------------------| 
A||---------------------------------------------| 
E||---------------------------------------------| 


Guitar 2: 
E||------------------------9~--------10~----9~--| 
B||--10~--------10~--------7~--------7~---------| 
G||--x----------9~---------7~--------9~---------| 
D||--9~---------x----------x---------x----------| 
A||--10~--------9~---------7~--------9~---------| 
E||---------------------------------------------| 


Guitar 1 (Harmony): 
E||--------------------------------------------------------------------| 
B||--10--101010--101010--101010--101010--101010--101010--101010--1010--| 
G||--x---x-x-x---x-x-x---x-x-x---x-x-9---9-9-9---9-9-9---9-9-9---9-9---| 
D||--9---9-9-9---9-9-9---9-9-9---9-9-x---x-x-x---x-x-x---x-x-x---x-x---| 
A||--10--101010--101010--101010--10109---9-9-9---9-9-9---9-9-9---9-9---| 
E||--------------------------------------------------------------------| 


E||-----------------------------------------------------| 
B||--7---7-7-7---7-7-7---7-7-7---7-7-3-3-3-3-3-3-3-3-5--| 
G||--7---7-7-7---7-7-7---7-7-7---7-7-4-4-4-4-4-4-4-4-6--| 
D||--x---x-x-x---x-x-x---x-x-x---x-x-x-x-x-x-x-x-x-x-x--| 
A||--7---7-7-7---7-7-7---7-7-7---7-7-5-5-5-5-5-5-5-5-7--| 
E||-----------------------------------------------------| 


Guitar 2: 
E||--------------------------------------------------------------------| 
B||--15--151515--151515--151515--151514--141414--141414--141414--1414--| 
G||--x---x-x-x---x-x-x---x-x-x---x-x-x---x-x-x---x-x-x---x-x-x---x-x---| 
D||--12--121212--121212--121212--121211--111111--111111--111111--1111--| 
A||--------------------------------------------------------------------| 
E||--------------------------------------------------------------------| 


E||-------------------------------------------------------| 
B||--15--151515--151515--151515--15151717171717171717-19--| 
G||--x---x-x-x---x-x-x---x-x-x---x-x-x-x-x-x-x-x-x-x--x---| 
D||--12--121212--121212--121212--12121414141414141414-16--| 
A||-------------------------------------------------------| 
E||-------------------------------------------------------| 



Interlude 
Guitar 1: 
E||---------------------------------------------------------------| 
B||--10~-----------------3~--------------7~-----------------------| 
G||--11~-----------------4~--------------4~-----------------9/11--| 
D||--9~------------------2~--------------5~-------------9\7-------| 
A||---------------------------------------------------------------| 
E||---------------------------------------------------------------| 


E||------------------------------------------| 
B||--10~-----------------3~--------------7~--| 
G||--11~-----------------4~--------------4~--| 
D||--9~------------------2~--------------5~--| 
A||------------------------------------------| 
E||------------------------------------------| 


Guitar 2: 
E||--------------------------------------------------| 
B||-----------17----14---------10----7---------6/7~--| 
G||-----14-----------------7---------------4---------| 
D||--16----16------------9---9-----------5---5-------| x2 
A||--------------------------------------------------| 
E||--------------------------------------------------| 



Chorus 
Guitar 1:                                              (v Dub) 
E||---------------------------------------------------------------| 
B||--10~----10~----------3~----3~--------7~-----------------------| 
G||--11~----11~----------4~----4~--------4~-----------------9/11--| 
D||--9~-----9~-----------2~----2~--------5~-------------9\7-------| x2 
A||---------------------------------------------------------------| 
E||---------------------------------------------------------------| 


Guitar 2: 
E||---------------------------------------------------------------| 
B||-----------17----14---------10----7---------6/7~---------------| 
G||-----14-----------------7---------------4----------------------| 
D||--16----16------------9---9-----------5---5--------------------| x2 
A||---------------------------------------------------------------| 
E||---------------------------------------------------------------| 



Outro 
Guitar 1:                                                    (v Dub) 
E||---------------------------------------------------------------------| 
B||--10-10-10-10-10-10-10-10--3-3-3-3-3-3-3-3--7~-----------------------| 
G||--11-11-11-11-11-11-11-11--4-4-4-4-4-4-4-4--4~-----------------9/11--| 
D||--9--9--9--9--9--9--9--9---2-2-2-2-2-2-2-2--5~-------------9\7-------| 
A||---------------------------------------------------------------------| 
E||---------------------------------------------------------------------| 


E||------------------------------------------------------| 
B||--10-10-10-10-10-10-10-10--3-3-3-3-3-3-3-3--------7~--| 
G||--11-11-11-11-11-11-11-11--4-4-4-4-4-4-4-4------7~----| 
D||--9--9--9--9--9--9--9--9---2-2-2-2-2-2-2-2----5~------| 
A||--------------------------------------------7~--------| 
E||------------------------------------------------------| 


Guitar 2: 
E||--------------------------------------------------| 
B||-----------17----14---------10----7---------6/7~--| 
G||-----14-----------------7---------------4---------| 
D||--16----16------------9---9-----------5---5-------| x2 
A||--------------------------------------------------| 
E||--------------------------------------------------| 




Tablature Legend 
---------------- 
 h   hammer-on 
 p   pull-off 
 b   bend 
 pb  pre-bend 
 r   release bend 
 ~   hold / vibrato 
 .   palm mute 
 /   slide up 
 \   slide down 
 *   pinch harmonic 
 '   natural harmonic 
 x   mute note 
 T   tap 

roll up this ad to continue

share this page

See Also: