E-Chords
Hail The Sun

Testostyrannosaurus(Tabs)

Hail The Sun


Intro 
|-----------------------------------------------------------| 
|--4--------9----4---------7----4-------9-----4-------------| 
|--1--------6----1---------4----1-------6-----1-------------| 
|--1--------6----1---------4----1-------6-----1-------------| 
|-----------------------------------------------------------| 
|-----0--0-----0----0--0-0---0-----0--0---0-----0-0--0-0----| 


Hunting is in our blood...  
|----------------------------------------------------------| 
|--4-------9----4---------7----4-------9-----4--------7----| 
|--1-------6----1---------4----1-------6-----1--------4----| 
|--1-------6----1---------4----1-------6-----1--------4----| 
|----------------------------------------------------------| 
|----0--0-----0----0--0-0---0-----0--0---0-----0-0--0---0--| 


Watch out demoiselle... 
|---------------------2-----------------------------------| 
|-(4)-------------------4---(4)---------------------------| 
|-(1)-----------------------(1)---------------------------| 
|--1-------------------------1----------------------------| 
|--0-------------------------0----------------------------| 
|--4-------------------------4----------------------------| 


Verse 
0:29 
|------------------------------| 
|---------------------12-------| 
|------6/8------11/13----13----| 
|--4/6-----9/11----------------| 
|------------------------------| 
|------------------------------| 

0:50 
|--------------------------------------------------------------| 
|---------------------12-----13-12----------------12b13br12----| 
|------6/8------11/13--------------13---------13------------13-| 
|--4/6-----9/11-----------------------14---14------------------| 
|----------------------------------------15--------------------| 
|--------------------------------------------------------------| 

0:55 
|------------------------------| 
|---------------------12-------| 
|------6/8------11/13----13----| 
|--4/6-----9/11----------------| 
|------------------------------| 
|------------------------------| 

1:05 
|--------------------------------------------------------------| 
|---------------------12-----13-12----------------12-----------| 
|------6/8------11/13--------------13---------13----13---------| 
|--4/6-----9/11-----------------------14---14------------------| 
|----------------------------------------15--------------------| 
|--------------------------------------------------------------| 

Chorus 

|---------------------------------------| 
|---------------------------------------| 
|--4-4444---111111---0-0000--0-0000-----| 
|--2-2222---2-2222---2-2222--2-2222-----| 
|--4-4444---3-3333---1-1111--1-1111-----| 
|-----------3-3333---2-2222--2-2222-----| 


1:29 
|------------------------------| 
|---------------------12-------| 
|------6/8------11/13----------| 
|--4/6-----9/11----------------| 
|------------------------------| 
|------------------------------| 

1:33-1:47 

rest 

1:48-repeat earlier verse 



2:06 
|---0---55--------------------------------| 
|---0---xx------55------------------------| 
|-4--4--22--44--xx-----------444----444---| 
|-2--2------22--22--(x3)-----222----222---| 
|-4--4------44---------------444----444---| 
|-----------------------------------------| 

2:12 

|------------------------------| 
|---------------5p0h5/9--------| 
|------4-----------------------| 
|----6---6-4-------------------| 
|--4----------7----------------| 
|------------------------------| 

2:28 
|----4-4-4-4-4-4-4-4-----------| 
|---5-5-5-5-5-5-5-5------------| 
|------------------------------| 
|------------------------------| 
|------------------------------| 
|------------------------------ | 

3:28 
|-------------------------------| 
|----------12--------------12---| 
|-------9-----13---------9---13-| 
|--9h11-------------9h11--------| 
|-------------------------------| (x2) 
|-------------------------------| 

3:35 
|------------------------------------------11-------------------| 
|----------12--------------12----------------12-----------------| 
|-------9-----13---------9---13---------9-----------------------| 
|--9h11-------------9h11-----------9h11-------------------------| 
|---------------------------------------------------------------| 
|---------------------------------------------------------------| 
|            (decided to tab out both guitars here just because) 
|---------------------------------------------------------------| 
|---------------------------------------------------------------| 
|---------------------------------------------------------------| 
|---------------------------------------------------8-----------| 
|------7-11-7-----------7-11-7---------7-11-7---------9-9/11----| 
|---7h9-------------7h9-----------7h9---------------------------| 


|---------------------------------------------------------------| 
|----------12--------------12-------------12-------------12-----| 
|-------9-----13---------9---13---------9----13--------9---13---| 
|--9h11-------------9h11-----------9h11------------9h11---------| 
|---------------------------------------------------------------| 
|---------------------------------------------------------------| 
|            () 
|---------------------------------------------------------------| 
|---------------------------------------------------------------| 
|-------------------------------------------------------------8-| 
|-----------------------------------------------8------------9--| 
|------7-11-7-----------7-11-7---------7-11-7-----9-9/11---11---| 
|---7h9-------------7h9-----------7h9---------------------------| 


|-----------------------------------------11--------------------| 
|----------12--------------12---------------12------------------| 
|-------9-----13---------9---13---------9-----------------------| 
|--9h11-------------9h11-----------9h11-------------------------| 
|---------------------------------------------------------------| 
|---------------------------------------------------------------| 
|            () 
|---------------------------------------------------------------| 
|------------------------------7--------------------------10--9-| 
|--(8)----------/9 -----------------9------------------8--------| 
|---------------------------------------------------------------| 
|---------------------------------------------------------------| 
|---------------------------------------------------------------| 

|---------------------------------------------------------------| 
|----------12--------------12--------12~------------------------| 
|-------9-----13---------9---13------9~-------------------------| 
|--9h11-------------9h11-------------9~-------------------------| 
|---------------------------------------------------------------| 
|---------------------------------------------------------------| 
|            () 
|--------------------------------7-9-9-9-9-9-9-9-9-9-9-9-9-9-9--| 
|--------------------------10-10--------------------------------| 
|--(8)----------------------------------------------------------| 
|---------------------------------------------------------------| 
|---------------------------------------------------------------| 
|---------------------------------------------------------------| 

4:05 
|--11-------------------------------11-----| 
|------12---9--------------------12----12--| 
|-------------11--9--8-8--9--11------------| 
|------------------------------------------| 
|------------------------------------------| 
|------------------------------------------| 


|--12--11----------------------------------| 
|---------12-------------------------------| 
|------------11--9--6/8--------------------| 
|------------------------------------------| 
|------------------------------------------| 
|------------------------------------------| 


|--11-7----------------------------11------| 
|-------9-7--------------------9h12--12----| 
|-----------9-8-9p8h9p8h9h11---------------| 
|------------------------------------------| 
|------------------------------------------| 
|------------------------------------------| 

|--12-11-----------------------11--14p11---| 
|-------12-9-----------------12--12--------| 
|------------11-9--9-9h11p9----------------| 
|----------------13------------------------| 
|------------------------------------------| 
|------------------------------------------| 

|--12h16p12p0----11h14p11p0-----------------------------------------------------| 
|------------16p0----------14p0-12h16p12p0-----9h12p9p0-----9p0-10p0-9h10p9-----| 
|-----------------------------------------14p0---------11p0---------------------| 
|-------------------------------------------------------------------------------| 
|-------------------------------------------------------------------------------| 
|-------------------------------------------------------------------------------| 

|--11-7----------------------------11------| 
|-------9-7--------------------9h12--12----| 
|-----------9-8-9p8h9p8h9h11---------------| 
|------------------------------------------| 
|------------------------------------------| 
|------------------------------------------| 

|--12-11-----------------------11--14p11---| 
|-------12-9-----------------12--12--------| 
|------------11-9--9-9h11p9----------------| 
|----------------13------------------------| 
|------------------------------------------| 
|------------------------------------------| 

|--12h16p12p0----11h14p11p0-----------------------------------------------------| 
|------------16p0----------14p0-12h16p12p0-----9h12p9p0-----9p0-10p0-9h10p9-----| 
|-----------------------------------------14p0---------11p0---------------------| 
|-------------------------------------------------------------------------------| 
|-------------------------------------------------------------------------------| 
|-------------------------------------------------------------------------------| 


outro 

|------------------------------| 
|---------------5p0h5/9--------| 
|------4-----------------------| 
|----6---6-4-------------------| 
|--4----------7----------------| 
|------------------------------| 

|---0---55----------| 
|---0---xx------55--| 
|-4--4--22--44--xx--| 
|-2--2------22--22--| 
|-4--4------44------| 
|-------------------| 

tabbed out mostly everything... let me know if you have corrections/additions. 

roll up this ad to continue

share this page

See Also: