E-Chords
Hail The Sun

Relax Divide(Tabs)

Hail The Sun

Standard Tuning 


Verse 

|-------------------------------------------------------------------------------| 
|-------------------------------------------------------------------------------| 
|------1--1------1--1----------6----------3-3--------3--3-----3--3--------3-3---| 
|----------------------------4---4------4---------4----4----4---4------4---4----| 
|----4---------4---------4h6---------1------------------------------------------| 
|--2---------2---------------------------------4----------4----------4----------| 
..continued 
|----------------------------------------------------| 
|----------------------------------------------------| 
|------------------3-3-------3-3---(3)---------------| 
|----------------4--4-------4-4----(4)---------------| 
|----------------------------------(4)---------------| 
|--2---2---2---4----------4---------2----------------| 

Chorus 
|---------------------------------| 
|--4---4----6--6-----------6-6-6--| 
|--3----6---6--6---3--3----5-5-5--| 
|--4--------8--8---4--4----6-6-6--| 
|--2---------------1--1----4-4-4--| 
|---------------------------------| 

on last time repeating  end with 

|---------| 
|-6-------| 
|-5--3-6--| 
|-6-------| 
|-4-------| 
|---------| 

Ending 

|------------------------3-----------------------| 
|-------4---------------4----------4------6------| 
|------5---5--3-------5----------5-------5-------| 
|-----6---------6---3----------5-------6---------| 
|----6-----------------------3-------4-----------| 
|---4--------------------------------------------| 

this part repeats a few times 


|-----------------------------------------------------------------------------------| 
|--9-8-6----------------------------------------------------------------------------| 
|--------8-6-5--------0---0----0-----0------------------3---------------8-10--------| 
|--------------8-6---6---6-----------------------6p5---5--5-5h6---10-6-------10-8---| 
|-------------------8---6-----8----8-----6---8-------6---------8--------------------| 
|---------------------------6----8-----4---6---4------------------------------------| 

|--------------------------------------------------------| 
|--------------------------------------------------------| 
|---0--0-----0--0-------------3-------------8-10---------| 
|--8--8--8--6--6--6---6p5---5--5-5h6---10-6-------10-8---| 
|------------------------6----------8--------------------| 
|-8--8--8--6--6--6--4------------------------------------| 

|--------------------------------------| 
|--------------------------------------| 
|---0--0-----0--0-----0--0--0--0--0----| 
|--8--8--8--6--6--6--3--3--3--5--5--5--| 
|--------------------------------------| 
|-8--8--8--6--6--6--4--4--4--6--6--6---| 

|--------------------------------------| 
|--------------------------------------| 
|---0--0-----0--0-----0--0--0--0--0----| 
|--8--8--8--6--6--6--3--3--3--5--5--5--| 
|--------------------------------------| 
|-8--8--8--6--6--6--4--4--4--6--6--6---| 

|--------------------------------------| 
|--------------------------------------| 
|---0--0-----0--0-----0--0--0--0--0----| 
|--8--8--8--6--6--6--3--3--3--3--3--3--| 
|--------------------------------------| 
|-8--8--8--6--6--6--4--4--4--3--3--3---| 

roll up this ad to continue

share this page

See Also: