E-Chords
Hail The Sun

Ready Or Not There I Go(Tabs)

Hail The Sun

Gtr.1-electric 
Gtr.2-electric 
Gtr.3-acoustic 

Intro: 

Gtr.1 

   T     T     T     T     T     T     T     T     T 
e|---------------------------------------------------| 
B|-7p2h4h7p2h4h7p2h4h7p2h4h7p2h4h7p2h4h7p2h4h7p2h4h7-| 
G|---------------------------------------------------| 
D|---------------------------------------------------| 
A|---------------------------------------------------| 
E|---------------------------------------------------| 

Just repeat this as much as needed, end with: 

  T     T     T     T 
|--------------------------| 
|-7p2h4h7p2h4h7p2h4h7p2h4~-| 
|--------------------------| 
|--------------------------| 
|--------------------------| 
|--------------------------| 

Gtr.2-I think the guitarist just strums this chord 
and then slowly turns the volume up in a crescendo.  

|----| 
|----| 
|-8~-| 
|-8~-| 
|-6~-| 
|----| 


(00:07) 
Gtr.1 

|-------------------------6-------------7---11-| 
|-----6-------6-------6-----9-7-6---6-7---9----| 
|-888-8-8-888-8-8-888-8-8---------8------------|x3 
|-888---8-888---8-888---8----------------------| 
|-666---6-666---6-666---6----------------------| 
|----------------------------------------------| 

|-----8-11------------------------------------| 
|-8-9------8~---------------------------------| 
|--------------------------------------8------| 
|--------------------------------------8-3-8--| 
|--------------------------------------6-3-8--| 
|----------------------------------------1-6--| 

|-------------------------------11-10-8-------------| 
|---------------------------------------11-9-8----8-| 
|----------------------------------------------10---| 
|-101010-101010-101010-10101010---------------------| 
|-101010-101010-101010-10101010---------------------| 
|-8-8-8--8-8-8--8-8-8--8-8-8-8----------------------| 

|-------------------------------------------------------------------| 
|-------------------------------------------------------------------| 
|-------------------------------8-----------------------------------| 
|-101010-101010-101010-10101010-8-3-8-101010-101010-101010-10101010-| 
|-101010-101010-101010-10101010-6-3-8-101010-101010-101010-10101010-| 
|-8-8-8--8-8-8--8-8-8--8-8-8-8----1-6-8-8-8--8-8-8--8-8-8--8-8-8-8--| 

|-11-10-8--------------------8~-| 
|---------11-9-8----8------8----| 
|----------------10---8-10------| 
|-------------------------------| 
|-------------------------------| 
|-------------------------------| 

Gtr.2 

|--------13--------13--------13-------------------------------| 
|-------------------------------------------------------------| 
|-------------------------------11-10----------------10-11-13-|x3 
|-131313----131313----131313----------13-11----11-13----------| 
|-131313----131313----131313----------------13----------------| 
|-111111----111111----111111----------------------------------| 

|---------------------------------------------------| 
|---------------------------------------------------| 
|----------12---------------------------------8-----| 
|-10-12-13---10-----12-----12--------------12-8-3-8-| 
|---------------101010-101010-101010-10101010-6-3-8-| 
|---------------8-8-8--8-8-8--8-8-8--8-8-8-8----1-6-| 

|--------------------------------------------------| 
|--------------------------------------------------| 
|-------------------------------------------8------| 
|-----12-----12--------------12-----------8------8-| 
|-101010-101010-101010-10101010------8-10-----10---| 
|-8-8-8--8-8-8--8-8-8--8-8-8-8--8-11---------------| 

|-------------------------------------------------------------------| 
|-------------------------------------------------------------------| 
|-------------------------------8-----------------------------------| 
|-----12-----12--------------12-8-3-8-----12-----12--------------12-| 
|-101010-101010-101010-10101010-6-3-8-101010-101010-101010-10101010-| 
|-8-8-8--8-8-8--8-8-8--8-8-8-8----1-6-8-8-8--8-8-8--8-8-8--8-8-8-8--| 

|------------------------------| 
|---------------------------8~-| 
|-------------8---------7-8-8~-| 
|-----------8------8-10--------| 
|------8-10-----10-------------| 
|-8-11-------------------------| 


(00:42) 

Gtr.1 

|-8888888888------------------------------| 
|------------11---9-8---------------------| 
|---------------------10b--10-8-10---10b~-| 
|-----------------------------------------| 
|-----------------------------------------| 
|-----------------------------------------| 

|----------------11h13p11/8h10---8-------11h13p11/8h10-10-8~-| 
|------8----8h11--------------------8h11---------------------| 
|-8h10-------------------------------------------------------| 
|------------------------------------------------------------| 
|------------------------------------------------------------| 
|------------------------------------------------------------| 

|----------------| 
|-7-7--7-7-7-----| 
|-8-8--8-8-8-1/--| 
|-9-9--9-9-9-----| 
|----------------| 
|----------------| 

Gtr.2 

|--------------------------------------------------------| 
|-----8-8~----8-8~----8-8~----8-8-8~----8-8-8~----8-8-8~-| 
|-----7-8~----7-8~----7-8~----7-8-5~----7-8-5~----7-8-5~-| 
|--------------------------------------------------------| 
|--------------------------------------------------------| 
|--------------------------------------------------------| 

|----------------| 
|-7-7--7-7-7-----| 
|-8-8--8-8-8-----| 
|-9-9--9-9-9-4/--| 
|----------------| 
|------------2/--| 


(00:56) 

Gtr.1 

|-----------------------------------------------------------| 
|-----------------------------------------------------------| 
|-9---9--9---9--9---9--9---9--11--11-11--11-11--11-11--11-6-| 
|-11--11-11--11-11--11-11--11-11--11-11--11-11--11-11--11-8-| 
|-11--11-11--11-11--11-11--11-11--11-11--11-11--11-11--11-8-| 
|-9---9--9---9--9---9--9---9--9---9--9---9--9---9--9---9--6-| 

|--------------------------------------| 
|--------------------------------------| 
|-6-6--6-6--6-6--6-6--6-6--6-6--6-6--6-| 
|-8-8--8-8--8-8--8-7--7-7--7-7--7-7--7-| 
|-8-8--8-8--8-8--8-7--7-7--7-7--7-7--7-| 
|-6-6--6-6--6-6--6-5--5-5--5-5--5-5--5-| 

|----------------------------------------------------------------| 
|----------------------------------------------------------------| 
|---------------------------6-6--6-6--6-6--6-6--6-6--6-6--6-6--6-| 
|-1111---1111--1111---1111--8-8--8-8--8-8--8-7--7-7--7-7--7-7--7-| 
|-1111---1111--1111---1111--8-8--8-8--8-8--8-7--7-7--7-7--7-7--7-| 
|-9-9----9-9---9-9----9-9---6-6--6-6--6-6--6-5--5-5--5-5--5-5--5-| 

|----------------------------------------------------------------| 
|----------------------------------------------------------------| 
|---------------------------6-6--6-6--6-6--6-6--6-6--6-6--6-6--6-| 
|-1111---1111--1111---1111--8-8--8-8--8-8--8-7--7-7--7-7--7-7--7-| 
|-1111---1111--1111---1111--8-8--8-8--8-8--8-7--7-7--7-7--7-7--7-| 
|-9-9----9-9---9-9----9-9---6-6--6-6--6-6--6-5--5-5--5-5--5-5--5-| 

|-0-0~--------------0-0~-----9h11p0h9h11p0h9h11p0h9h11p0h9h11~-| 
|-5-5~--------------5-5~---------------------------------------| 
|-6-6~--------------6-6~---------------------------------------| 
|-6-6~--------------6-6~---------------------------------------| 
|-4-4~--------------4-4~---------------------------------------| 
|--------------------------------------------------------------| 

Gtr.2 

|-----------------------------------------------------------| 
|-----------------------------------------------------------| 
|-9---9--9---9--9---9--9---9--11--11-11--11-11--11-11--11-6-| 
|-11--11-11--11-11--11-11--11-11--11-11--11-11--11-11--11-8-| 
|-11--11-11--11-11--11-11--11-11--11-11--11-11--11-11--11-8-| 
|-9---9--9---9--9---9--9---9--9---9--9---9--9---9--9---9--6-| 

|--------------------------------------| 
|--------------------------------------| 
|-6-6--6-6--6-6--6-6--6-6--6-6--6-6--6-| 
|-8-8--8-8--8-8--8-7--7-7--7-7--7-7--7-| 
|-8-8--8-8--8-8--8-7--7-7--7-7--7-7--7-| 
|-6-6--6-6--6-6--6-5--5-5--5-5--5-5--5-| 

|-----------------------------------------------------------------------| 
|-----------------------------------------------------------------------| 
|-------4---------------4----------6-6--6-6--6-6--6-6--6-6--6-6--6-6--6-| 
|---------------6---------------6--8-8--8-8--8-8--8-7--7-7--7-7--7-7--7-| 
|-4-4-4---4-4-4---4-4-4---4-4-4----8-8--8-8--8-8--8-7--7-7--7-7--7-7--7-| 
|----------------------------------6-6--6-6--6-6--6-5--5-5--5-5--5-5--5-| 

|-----------------------------------------------------------------------| 
|-----------------------------------------------------------------------| 
|-------4---------------4----------6-6--6-6--6-6--6-6--6-6--6-6--6-6--6-| 
|---------------6---------------6--8-8--8-8--8-8--8-7--7-7--7-7--7-7--7-| 
|-4-4-4---4-4-4---4-4-4---4-4-4----8-8--8-8--8-8--8-7--7-7--7-7--7-7--7-| 
|----------------------------------6-6--6-6--6-6--6-5--5-5--5-5--5-5--5-| 

|-0-0~--------------0-0~-------------------| 
|-5-5~--------------5-5~-------------------| 
|-6-6~--------------6-6~-------------------| 
|-6-6~--------------6-6~-------------------| 
|-4-4~--------------4-4~-------------------| 
|------------------------------------------| 


(01:32) 

Gtr.1 

|--------------------------------------------------------------| 
|----------------------------------------------------------7---| 
|-------8h9p8----8-------8h9p8----8-------8h9p8----8---8-----8-| 
|----11-------11------11-------11------11-------11-------9-----| 
|-12---------------12---------------11---------------9---------| 
|--------------------------------------------------------------| 

|-----------------------------------| 
|-------9---------9----------12-9b~-| 
|---9-----9---9-----9---------------| 
|-----9---------9---------11--------| 
|-7---------7----------12-----------| 
|-----------------------------------| 

|--------------------------------------------------------------| 
|----------------------------------------------------------7---| 
|-------8h9p8----8-------8h9p8----8-------8h9p8----8---8-----8-| 
|----11-------11------11-------11------11-------11-------9-----| 
|-12---------------12---------------11---------------9---------| 
|--------------------------------------------------------------| 

|-----------------------------------| 
|-------9---------9----------12-9b~-| 
|---9-----9---9-----9---------------| 
|-----9---------9---------11--------| 
|-7---------7----------12-----------| 
|-----------------------------------| 

Gtr.2-clean 

|-11-11-11-11-9--9--9/11-11-11-9--9------------------| 
|-12-12-12-12-12-12-1212-12-12-12-12-12---10---9---7-| 
|---------------------------------------8----8---8---| 
|----------------------------------------------------| 
|----------------------------------------------------| 
|----------------------------------------------------| 

|-11-11-11-11-9--9--9/11-11-11-11------------| 
|-12-12-12-12-12-12-1212-12-12-12------------| 
|--------------------------------------9-8b~-| 
|-----------------------------------11-------| 
|---------------------------------9----------| 
|--------------------------------------------| 

|-11-11-11-11-9--9--9/11-11-11-9--9------------------| 
|-12-12-12-12-12-12-1212-12-12-12-12-12---10---9---7-| 
|---------------------------------------8----8---8---| 
|----------------------------------------------------| 
|----------------------------------------------------| 
|----------------------------------------------------| 

*-it switches to a lightly distorted sound 

|-11-11-11-11-9--9--9/11-11-11-11-------------| 
|-12-12-12-12-12-12-1212-12-12-12-------------| 
|---------------------------------------9-8b~-| 
|------------------------------------11-------| 
|---------------------------------*9----------| 
|---------------------------------------------| 

(01:49)-(02:25) 

Gtr.1-I don't think that it plays anything until 02:19, 
but you can play the same chords the acoustic guitar plays. 

(02:19) 

|-4-4-4-4-4-4-4-4-4-4-4-4-4-4-4-4-4-4-4-4-4-4-4-4-| 
|-4-4-4-4-4-4-4-4-4-4-4-4-4-4-4-4-4-4-4-4-4-4-4-4-| 
|-5-5-5-5-5-5-5-5-5-5-5-5-5-5-5-5-5-5-5-5-5-5-5-5-| 
|-6-6-6-6-6-6-6-6-6-6-6-6-6-6-6-6-6-6-6-6-6-6-6-6-| 
|-6-6-6-6-6-6-6-6-6-6-6-6-6-6-6-6-6-6-6-6-6-6-6-6-| 
|-4-4-4-4-4-4-4-4-4-4-4-4-4-4-4-4-4-4-4-4-4-4-4-4-| 

Gtr.2-this part was very hard to hear but I think it's pretty accurate 

|-----------------------------------------------------------| 
|--------9~-------9b~---------------------------------------| 
|------------------------9h11~----11-9-8~---------------8---| 
|-------------------------------------------11~----11~----9-| 
|-----------------------------------------------------------| 
|-----------------------------------------------------------| 

|------------------------------------------------| 
|-----------------------7-7-7-9-9-9-7-7-7-9-9-9--| 
|------------9~---------9-9-9-9-9-9-9-9-9-9-9-9--| 
|-----------------------101010101010101010101010-| 
|-----7~----------------111111111111111111111111-| 
|------------------------------------------------| 

Gtr.3- 

|-0--0-0-0-0--0-0-0-0--0-0-0-0--0-0-0-0--0-0-0-0--0-0-0-0--0-0-0-0--0-0-0-| 
|-0--0-0-0-0--0-0-0-0--0-0-0-0--0-0-0-2--2-2-2-2--2-2-2-2--2-2-2-2--2-2-2-| 
|-1--1-1-1-1--1-1-1-1--1-1-1-1--1-1-1-2--2-2-2-2--2-2-2-2--2-2-2-2--2-2-2-| 
|-2--2-2-2-2--2-2-2-2--2-2-2-2--2-2-2-2--2-2-2-2--2-2-2-2--2-2-2-2--2-2-2-| 
|-2--2-2-2-2--2-2-2-2--2-2-2-2--2-2-2-0--0-0-0-0--0-0-0-0--0-0-0-0--0-0-0-| 
|-0--0-0-0-0--0-0-0-0--0-0-0-0--0-0-0-------------------------------------| 

|-0--0-0-0-0--0-0-0-0--0-0-0-0--0-0-0-0--0-0-0-0--0-0-0-0--0-0-0-0--0-0-0-| 
|-0--0-0-0-0--0-0-0-0--0-0-0-0--0-0-0-2--2-2-2-2--2-2-2-2--2-2-2-2--2-2-2-| 
|-1--1-1-1-1--1-1-1-1--1-1-1-1--1-1-1-2--2-2-2-2--2-2-2-2--2-2-2-2--2-2-2-| 
|-2--2-2-2-2--2-2-2-2--2-2-2-2--2-2-2-2--2-2-2-2--2-2-2-2--2-2-2-2--2-2-2-| 
|-2--2-2-2-2--2-2-2-2--2-2-2-2--2-2-2-0--0-0-0-0--0-0-0-0--0-0-0-0--0-0-0-| 
|-0--0-0-0-0--0-0-0-0--0-0-0-0--0-0-0-------------------------------------| 

|-0--0-0-0-0--0-0-0-0--0-0-0-0--0-0-0-0--0-0-0-0--0-0-0-0--0-0-0-0--0-0-0-| 
|-0--0-0-0-0--0-0-0-0--0-0-0-0--0-0-0-2--2-2-2-2--2-2-2-2--2-2-2-2--2-2-2-| 
|-1--1-1-1-1--1-1-1-1--1-1-1-1--1-1-1-2--2-2-2-2--2-2-2-2--2-2-2-2--2-2-2-| 
|-2--2-2-2-2--2-2-2-2--2-2-2-2--2-2-2-2--2-2-2-2--2-2-2-2--2-2-2-2--2-2-2-| 
|-2--2-2-2-2--2-2-2-2--2-2-2-2--2-2-2-0--0-0-0-0--0-0-0-0--0-0-0-0--0-0-0-| 
|-0--0-0-0-0--0-0-0-0--0-0-0-0--0-0-0-------------------------------------| 

|-0--0-0-0-0--0-0-0-0--0-0------------------------------------------------| 
|-0--0-0-0-0--0-0-0-0--0-0------------------------------------------------| 
|-1--1-1-1-1--1-1-1-1--1-1------------------------------------------------| 
|-2--2-2-2-2--2-2-2-2--2-2------------------------------------------------| 
|-2--2-2-2-2--2-2-2-2--2-2------------------------------------------------| 
|-0--0-0-0-0--0-0-0-0--0-0------------------------------------------------| 


(02:25) 

Gtr.1 

|-5-5-5-5-5-5-5-5-5-5-5-5----4-4-4-4-4-4-4-4-4-2-2-2-2-2-2-2-| 
|-5-5-5-5-5-5-5-5-5-5-5-5----5-5-5-5-5-5-5-5-5-4-4-4-4-4-4-4-| 
|-6-6-6-6-6-6-6-6-6-6-6-6----6-6-6-6-6-6-6-6-6-4-4-4-4-4-4-4-| 
|-7-7-7-7-7-7-7-7-7-7-7-7----6-6-6-6-6-6-6-6-6-4-4-4-4-4-4-4-| 
|-7-7-7-7-7-7-7-7-7-7-7-7-2~-4-4-4-4-4-4-4-4-4-2-2-2-2-2-2-2-| 
|-5-5-5-5-5-5-5-5-5-5-5-5------------------------------------| 

|-2-2-2-2-2-2-2-2-2-2-2-2-2-2-2-2-2-2-2-2-2-2-3-3-3-3-3-3-| 
|-2-2-2-2-2-2-2-2-2-2-2-2-2-2-2-2-4-4-4-4-4-4-5-5-5-5-5-5-| 
|-2-2-2-2-2-2-2-2-2-2-2-2-2-2-2-2-4-4-4-4-4-4-5-5-5-5-5-5-| 
|-4-4-4-4-4-4-4-4-4-4-4-4-4-4-4-4-4-4-4-4-4-4-5-5-5-5-5-5-| 
|-4-4-4-4-4-4-4-4-4-4-4-4-4-4-4-4-2-2-2-2-2-2-3-3-3-3-3-3-| 
|-2-2-2-2-2-2-2-2-2-2-2-2-2-2-2-2-------------------------| 
  
 You can alt.pick this part 
|-4-4-4-4-4-4-4-4-4-4-4-4---------------------------------------| 
|-4-4-4-4-4-4-5-5-5-5-5-5---------------------------------------| 
|-6-6-6-6-6-6-6-6-6-6-6-6--6-6--6-6--6-6--6-6--6-6--6-6--6-6--6-| 
|--------------------------8-8--8-8--8-8--8-7--7-7--7-7--7-7--7-| 
|--------------------------8-8--8-8--8-8--8-7--7-7--7-7--7-7--7-| 
|--------------------------6-6--6-6--6-6--6-5--5-5--5-5--5-5--5-| 

Gtr.2 

|-12-11----------------------------------------11h12----------------------| 
|-------12----------------------------------12-------12-------------------| 
|----------13----------------------------13-------------13----------------| 
|-------------14-13----------------13-14-------------------14-13-11----11-| 
|-------------------14-11----11-14----------------------------------13----| 
|-------------------------12----------------------------------------------| 

|------------------------------------------11-12~-| 
|--------------12-12h14p12----12-121212-14--------| 
|-----------13-------------13---------------------| 
|-11--11-14---------------------------------------| 
|-------------------------------------------------| 
|-------------------------------------------------| 

|-111111111111---------------------------111111111111-12-| 
|--------------141414141414-121212121212-----------------| 
|--------------------------------------------------------| 
|--------------------------------------------------------| 
|--------------------------------------------------------| 
|--------------------------------------------------------| 

|-12h14p12-11h12p11-9h11p9-7h9p7-5h7p5-4h5p4-5h7p5-7h9p7-9h11p9-11h12p11-| 
|------------------------------------------------------------------------| 
|------------------------------------------------------------------------| 
|------------------------------------------------------------------------| 
|------------------------------------------------------------------------| 
|------------------------------------------------------------------------| 

|-12h14p12h14/16~-------16/---------------------------------------| 
|-----------------------x-----------------------------------------| 
|-----------------------13/--6-6--6-6--6-6--6-6--6-6--6-6--6-6--6-| 
|----------------------------8-8--8-8--8-8--8-7--7-7--7-7--7-7--7-| 
|----------------------------8-8--8-8--8-8--8-7--7-7--7-7--7-7--7-| 
|----------------------------6-6--6-6--6-6--6-5--5-5--5-5--5-5--5-| 


(02:48) 

Gtr.1 

|----------------------------------------| 
|----------------------------------------| 
|----------------------------------------| 
|-6-6--4-4--6-6--4-4--2-2--2-2--2-2--2-2-| 
|-x-x--x-x--x-x--x-x--x-x--x-x--x-x--x-x-| 
|-5-5--5-5--5-5--5-5--0-0--0-0--0-0--0-0-| 

|----------------------------------------| 
|----------------------------------------| 
|----------------------------------------| 
|-6-6--4-4--6-6--4-4--2-2--2-2--2-2--2-2-| 
|-x-x--x-x--x-x--x-x--x-x--x-x--x-x--x-x-| 
|-5-5--5-5--5-5--5-5--0-0--0-0--0-0--0-0-| 

|----------------------------------------| 
|----------------------------------------| 
|----------------------------------------| 
|-6-6--4-4--6-6--4-4--2-2--2-2--2-2--2-2-| 
|-x-x--x-x--x-x--x-x--2-2--2-2--2-2--2-2-| 
|-5-5--5-5--5-5--5-5--0-0--0-0--0-0--0-0-| 

|----------------------------------------| 
|----------------------------------------| 
|----------------------------------------| 
|-6-6--4-4--6-6--4-4--4-4--2-2--4-4--2-2-| 
|-7-7--7-7--7-7--7-7--2-2--2-2--2-2--2-2-| 
|-5-5--5-5--5-5--5-5--0-0--0-0--0-0--0-0-| 

|----------------------------------------| 
|----------------------------------------| 
|----------------------------------------| 
|-6-6--4-4--6-6--4-4--4-4--2-2--4-4--2-2-| 
|-7-7--7-7--7-7--7-7--2-2--2-2--2-2--2-2-| 
|-5-5--5-5--5-5--5-5--0-0--0-0--0-0--0-0-| 

Gtr.2 

|---------------------9--------------------------11--| 
|-----------------------12-10p9----------9-10-12-----| 
|-------------------------------11p9-8h9-------------| 
|----------------------------------------------------| 
|----------------------------------------------------| 
|----------------------------------------------------| 

The high notes here don't have to be played,  
but I heard them in some live videos so I put them. 
|---12---11---12---11---9---------------| 
|---------------------------12---10---9-| 
|-9----8----9----8----6-----------------| 
|-------------------------9----7----6---| 
|---------------------------------------| 
|---------------------------------------| 

|-1212--1111--1212--1111--9--------------------------11-| 
|-x-x---x-x---x-x---x-x-----12-10-9----------9-10-12----| 
|-9-9---8-8---9-9---8-8-------------11-9-8-9------------| 
|-------------------------------------------------------| 
|-------------------------------------------------------| 
|-------------------------------------------------------| 

|-12-11-------------------------------------11h12p11----------11h12h14p12p11----| 
|-------12-------------------------------------------12-------------------------| 
|----------13-------------------------------------------------------------------| 
|-------------14-13----------------13-14-14-------------14-14----------------14-| 
|-------------------14-11----11-14----------------------------------------------| 
|-------------------------12----------------------------------------------------| 

|-12-11---------------------------------------------| 
|-------12------------------------------------------| 
|----------13------------------------------9--------| 
|-------------14-13----------------13-9h11---11-11~-| 
|-------------------14-11----11-14------------------| 
|-------------------------12------------------------| 

Gtr.3-it sounds like there's two acoustic guitars in this part, 
but I'll just mesh them together. 

|----------------------------------------| 
|----------------------------------------| 
|----------------------------------------| 
|-6-6--4-4--6-6--4-4--2-2--2-2--2-2--2-2-| 
|-x-x--x-x--x-x--x-x--x-x--x-x--x-x--x-x-| 
|-5-5--5-5--5-5--5-5--0-0--0-0--0-0--0-0-| 

|-1616--1414--1616--1414-----------------| 
|-x-x---x-x---x-x---x-x------------------| 
|-1313--1111--1313--1111-----------------| 
|----------------------------------------| 
|----------------------------------------| 
|----------------------------------------| 

From here on out you can just play what guitar 1 plays. 


(03:08) 

Gtr.1 

|------------------------------------| 
|------------------------------------| 
|-----------------99--------99-------|x2 
|-88--88--88--88--77--1010--77--1010-| 
|-88--88--88--88--88--88----88--88---| 
|-66--66--66--66---------------------| 

|--------------------------| 
|--------------------------| 
|-------------9------9-----| 
|-8--8--8--8--7--10--7--10-| 
|-8--8--8--8--8--8---8--8--| 
|-6--6--6--6---------------| 

|------------------------------------| 
|------------------------------------| 
|-----------------99--------99-------| 
|-88--88--88--88--77--1010--77--1010-| 
|-88--88--88--88--88--88----88--88---| 
|-66--66--66--66---------------------| 

Gtr.2 

|-5-3-1-----------1-3-5-6-8~-8b~-| 
|-------5-3-1-3-5----------------| 
|--------------------------------| 
|--------------------------------| 
|--------------------------------| 
|--------------------------------| 

|--5-3-1-----------1-3-5-6-888810101010121212121313131315151515-| 
|--------5-3-1-3-5----------------------------------------------| 
|---------------------------------------------------------------| 
|---------------------------------------------------------------| 
|---------------------------------------------------------------| 
|---------------------------------------------------------------| 

|-17-15-13----------------13-15-17-18-20~-| 
|----------17-15-13-15-17-----------------| 
|-----------------------------------------| 
|-----------------------------------------| 
|-----------------------------------------| 
|-----------------------------------------| 
                                            
|-17-15-13----------------13-15-17-18-20~-20brb~-| 
|----------17-15-13-15-17------------------------| 
|------------------------------------------------| 
|------------------------------------------------| 
|------------------------------------------------| 
|------------------------------------------------| 


(03:23) 

Gtr.1 

|---------------------------| 
|-6-5-8-6-9-8-6-5-6-5-3-5-1-| 
|---------------------------|x3 
|---------------------------| 
|---------------------------| 
|---------------------------| 

|-------------------------------------------| 
|-6-5-8-6-9-8-6-5-6-5-3-5-1----5----/8----5-| 
|-------------------------------------------| 
|-------------------------------------------| 
|-------------------------------------------| 
|-------------------------------------------| 

Gtr.2-it starts after gtr.1 repeated its part once 

|---------------------------------------| 
|-8/10-8-11-10-14-11-10-11-10-8-6-8-10~-| 
|---------------------------------------| 
|---------------------------------------| 
|---------------------------------------| 
|---------------------------------------| 

|----------------------------------------------| 
|-10-8-11-10-14-11-10-11-10-8-6-8-6h8/10/8p6/1-| 
|----------------------------------------------| 
|----------------------------------------------| 
|----------------------------------------------| 
|----------------------------------------------| 

|--------------------------------------| 
|-8/10-8-11-10-14-11-10-11-10-8-6-8-1~-| 
|--------------------------------------| 
|--------------------------------------| 
|--------------------------------------| 
|--------------------------------------| 


(03:42) 

Gtr.2 

|----------------------------| 
|----------------------------| 
|----------------------------| 
|-10-10-x-x-7-7-x-x-10-10-10-| 
|-8--8--x-x-5-5-x-x-8--8--8--| 
|-10-10-x-x-6-6-x-x-10-10-10-| 


(03:45) 

Gtr.1 

|------------------------------------------| 
|--------------------5---5-----------------| 
|-----5-7-7b-5h7p5---5-----5-------9-5-----| 
|-5-7--------------7---7-------5-7-----8-7-| 
|------------------------------------------| 
|------------------------------------------| 

|-----------------------------------------------| 
|----------------5-----5-----5------------------| 
|-----5-7-7b-5-----5-----5-----5--------9-5-----| 
|-5-7----------7-----7-----7-----7--5-7-----8-7-| 
|-----------------------------------------------| 
|-----------------------------------------------| 

|--------------------------------------| 
|--------------------------------------| 
|-----5-7-7b~---5h7p5----------9-5-----| 
|-5-7-----------------7----5-7-----8-7-| 
|--------------------------------------| 
|--------------------------------------| 

|------------------------------| 
|------------------------------| 
|-----5-7-7b--7b-7b-7b-7b-7br~-| 
|-5-7--------------------------| 
|------------------------------| 
|------------------------------| 

Gtr.2-I'm not sure about this part, it's so hard to hear 
so this is my best shot at the chords he's playing 

|-------------------------------------------------------------| 
|-------------------------------------------------------------| 
|-------------------------------------------------------------|x3 
|-7-10-10-x-x-7-7-x-x-5-5-5-7-7-7--10-10-x-x-7-7-x-x-10-10-10-| 
|-5-8--8--x-x-5-5-x-x-5-5-5-5-5-5--8--8--x-x-5-5-x-x-8--8--8--| 
|-6-10-10-x-x-6-6-x-x-3-3-3-5-5-5--10-10-x-x-6-6-x-x-10-10-10-| 

|---------------------------------| 
|---------------------------------| 
|---------------------------------| 
|-7-10-10-x-x-7-7-x-x-5-5-5-7-7-7-| 
|-5-8--8--x-x-5-5-x-x-5-5-5-5-5-5-| 
|-6-10-10-x-x-6-6-x-x-3-3-3-5-5-5-| 


(04:12) 

Gtr.1 

|-----------------------------------------------------------| 
|-8---------------------8----------111111111111111111111111-| 
|-x----10----10----9----x----10----x-x-x-x-x-x-x-x-x-x-x-x--| 
|-5----x-----x-----x----5----x-----8-8-8-8-8-8-8-8-8-8-8-8--| 
|------8-----8-----7---------8------------------------------| 
|-----------------------------------------------------------| 

Gtr.2 

|-------3-----------5----------3------------------| 
|---------3-----------5----------3----6-6-6-6-6-6-| 
|----3------3----5------5---3------3--6-6-6-6-6-6-| 
|-5---5-------7---7-------5--5--------8-8-8-8-8-8-| 
|-5-----------7-----------5-----------------------| 
|-3-----------5-----------3-----------------------| 


(04:21) 

Gtr.1 

|-----------------------------------------------------------------------| 
|-----101010101010101010101010101010108-8-8-8-8-8-8-8-1010101010101010~-| 
|-2/9-9-9-9-9-9-9-9-9-101010101010101012121212121212121212121212121212~-| 
|-----------------------------------------------------------------------| 
|-----------------------------------------------------------------------| 
|-----------------------------------------------------------------------| 

Gtr.2 

|-------------------------------------------------------------------------| 
|-------------------------------------------------------------------------| 
|----10-10-10-10-10-10-10-10-10-10-10-10-7-7-7-7-7-7-7-7-7-7-7-7-7-7-7-7~-| 
|----12-12-12-12-12-12-12-12-12-12-12-12-9-9-9-9-9-9-9-9-8-8-8-8-8-8-8-8~-| 
|----12-12-12-12-12-12-12-12-12-12-12-12-9-9-9-9-9-9-9-9-8-8-8-8-8-8-8-8~-| 
|-4/-10-10-10-10-10-10-10-10-10-10-10-10-7-7-7-7-7-7-7-7-6-6-6-6-6-6-6-6~-| 


(04:31) 

Gtr.1-not sure about this part again 

|---------------------------------------------------------------------------| 
|---9---9---9---9---9---9---9---9---9---9---9---9--666666666666777777777777-| 
|-8---8---8---8---8---8---9---9---9---9---9---9-----------------------------|x2 
|---------------------------------------------------------------------------| 
|---------------------------------------------------------------------------| 
|---------------------------------------------------------------------------| 

|----------------------------------------| 
|---------------666666666666777777999999-| 
|-66--66-66--66--------------------------|x2 
|-66--66-66--66--------------------------| 
|-44--44-44--44--------------------------| 
|----------------------------------------| 

Gtr.2 
*-increasing volume 
|--------------------------------------------------------------| 
|--------------------------------------------------------------| 
|-8*-9---9--9---9--9---9--9---9--11--11-11--11-11--11-11--11-6-| 
|----11--11-11--11-11--11-11--11-11--11-11--11-11--11-11--11-8-| 
|----11--11-11--11-11--11-11--11-11--11-11--11-11--11-11--11-8-| 
|----9---9--9---9--9---9--9---9--9---9--9---9--9---9--9---9--6-| 

|--------------------------------------| 
|--------------------------------------| 
|-6-6--6-6--6-6--6-6--6-6--6-6--6-6--6-| 
|-8-8--8-8--8-8--8-7--7-7--7-7--7-7--7-| 
|-8-8--8-8--8-8--8-7--7-7--7-7--7-7--7-| 
|-6-6--6-6--6-6--6-5--5-5--5-5--5-5--5-| 

|-----------------------------------------------------------------------| 
|-----------------------------------------------------------------------| 
|-------4---------------4----------6-6--6-6--6-6--6-6--6-6--6-6--6-6--6-| 
|---------------6---------------6--8-8--8-8--8-8--8-7--7-7--7-7--7-7--7-| 
|-4-4-4---4-4-4---4-4-4---4-4-4----8-8--8-8--8-8--8-7--7-7--7-7--7-7--7-| 
|----------------------------------6-6--6-6--6-6--6-5--5-5--5-5--5-5--5-| 

|-----------------------------------------------------------------------| 
|-----------------------------------------------------------------------| 
|-------4---------------4----------6-6--6-6--6-6--6-6--6-6--6-6--6-6--6-| 
|---------------6---------------6--8-8--8-8--8-8--8-7--7-7--7-7--7-7--7-| 
|-4-4-4---4-4-4---4-4-4---4-4-4----8-8--8-8--8-8--8-7--7-7--7-7--7-7--7-| 
|----------------------------------6-6--6-6--6-6--6-5--5-5--5-5--5-5--5-| 


(04:58) 

Gtr.1 

|-------------------------11~-| 
|-12-11-9---------9-11-12-----| 
|---------11-9-11-------------| 
|-----------------------------| 
|-----------------------------| 
|-----------------------------| 

Gtr.2 

|-4---------------4---------0~-| 
|---7-5-4---4-5-7---7-5-4---4~-| 
|---------4---------------4----| 
|------------------------------| 
|------------------------------| 
|------------------------------| 

The end. Finally. 

roll up this ad to continue

share this page

See Also: