E-Chords
Hail The Sun

Human Target Practice(Tabs)

Hail The Sun


E|------------------------------------------------------------------ 
B|------------------------------------------------------------------ 
G|--5--5-5--5----5--5-5--5----5--5-5--5----5--5-5--5----5--5-5--5--- 
D|--3--3-3--3----3--3-3--3----3--3-3--3----3--3-3--3----3--3-3--3--- 
A|--4--4-4--4----4--4-4--4----4--4-4--4----4--4-4--4----4--4-4--4--- 
E|------------------------------------------------------------------ 

---------------------------------------------------------| 
---------------------------------------------------------| 
--5--5-5--5----6-6-6-6/8-8-8-8/10-10-10-10/13-13-13-13---| 
--3--3-3--3----------------------------------------------| 
--4--4-4--4----4-4-4-4/6-6-6-6/8--8--8---8/10-10-10-10---| 
---------------------------------------------------------| 


  'Public servant/swine abuse...' 
E|------------------------------------------------ 
B|------------------------------------------------ 
G|------------------------------------------------ 
D|--8p6-8/10-10p8-10/11\--8p6-8/10-10p8-10/11\---- 
A|------------------------------------------------ 
E|------------------------------------------------ 

-----------------------------------------------------| 
-----------------------------------------------------| 
-----------------------------------------------------| 
--8p6-8/10-10p8-10/11\--8p6-8/10-11-15-13-11-10-8-6--| 
-----------------------------------------------------| 
-----------------------------------------------------| 



E|-------------------------------8-6-4-------8-6-4----------------------------------------| 
B|-------6-4-2-------6-4-2---6-----------6---------------6-4-2-------6-4--9-7-6-7-9-6-----| 
G|---3-----------3---------6---6-------6---6---------3-----------3-------------------5-6--| 
D|-4---4-------4---4-------------------------------4---4-------4---4----------------------| 
A|----------------------------------------------------------------------------------------| 
E|----------------------------------------------------------------------------------------| 
   * * *       * * *       * * *       * * *       * * *       * * *           

  'Will force their waaaaay' 
E|------------------------------------------------ 
B|------------------------------------------------ 
G|------------------------------------------------ 
D|--8p6-8/10-10p8-10/11\--8p6-8/10-10p8-10/11\---- 
A|------------------------------------------------ 
E|------------------------------------------------ 

-----------------------------------------------------------------------------| 
-----------------------------------------------------------------------------| 
-------------------------------------------------------------6/8-10p8--------| 
--8p6-8/10-10p8-10/11\--8p6-8/10-11-15-13-11-10-8-6------6h8----------10-11--| 
-----------------------------------------------------6h8---------------------| 
-----------------------------------------------------------------------------| 



E|-------------------------------8-6-4-------8-6-4----------------------------------------------| 
B|-------6-4-2-------6-4-2---6-----------6---------------------------6-4-------------------6-4--| 
G|---3-----------3---------6---6-------6---6-------------5-3-------------------5-3--------------| 
D|-4---4-------4---4---------------------------------3-------6---3---------3-------6---3--------| 
A|-------------------------------------------------4---4-------4---4-----4---4-------4---4------| 
E|----------------------------------------------------------------------------------------------| 
   * * *       * * *       * * *       * * *       * * *       * * *     * * *       * * * 


 'Nothing at all, when you take away...' 
E|-------------------------------------------------------------------| 
B|--16\11/14\9---16\11/14\9---16\11/14\9---16\11/14\9--16--11-14--9--| 
G|-------------------------------------------------------------------| 
D|--13\8-/10\6---13\8-/10\6---13\8-/10\6---13\8-/10\6--13--8--10--6--| 
A|-------------------------------------------------------------------| 
E|-------------------------------------------------------------------| 


E|---------------------------------------------------------------| 
B|---------------------------------------------------------------| 
G|--10-10-10-10-10-10-10-10--12--13-13-13-13-13-13-13-13-13-13---| 
D|---------------------------------------------------------------| 
A|--8--8--8--8--8--8--8--8---10--11-11-11-11-11-11-11-11-11-11---| 
E|---------------------------------------------------------------| 

'Let's sit you down, Peel all your nails back' 
---------------------------------------------| 
---------------------------------------------| 
--6-6-6-6-6-6-6-6--8--5-5-5-5-5-5-5-5-5-5----| 
---------------------------------------------| 
--4-4-4-4-4-4-4-4--6--3-3-3-3-3-3-3-3-3-3----| 
---------------------------------------------| 

'Now do you feel all the fear you lack' 
--------------------------------------------------------------| 
--------------------------------------------------------------| 
--15-15-15-15-15-15-15-15--13--18-18-18-18-18-18-18-18-18-----| 
--------------------------------------------------------------| 
--13-13-13-13-13-13-13-13--11--16-16-16-16-16-16-16-16-16-----| 
--------------------------------------------------------------| 



E|------------------------------------------------------------------------------ 
B|------------------------------------------------------------------------------ 
G|--5--5-5--5----5--5-5--5----5--5-5--5----5--5-5--5----5--5-5--5----5--5-5--5-- 
D|--3--3-3--3----3--3-3--3----3--3-3--3----3--3-3--3----3--3-3--3----3--3-3--3-- 
A|--4--4-4--4----4--4-4--4----4--4-4--4----4--4-4--4----4--4-4--4----4--4-4--4-- 
E|------------------------------------------------------------------------------ 

'I see them feigning for a stranglehold on all of us'  
----------------------------------------------------------------------------------- 
----------------------------------------------------------------------------------- 
------------------------------------------------------6-6-6-6-8-8-8-8-10-10-10-10-- 
--------------------------6-6-6-6-8-8-8-8-10-10-10-10------------------------------ 
--4-4-4-4-6-6-6-6-8-8-8-8---------------------------------------------------------- 
----------------------------------------------------------------------------------- 

---------------------------------------------------------------------------------------| 
--------------------------------------13-13-13-13-14-14-14-14-13-13-13-13--------------| 
--11-11-11-11-13-13-13-13-15-15-15-15-------------------------------------15-15-15-15--| 
---------------------------------------------------------------------------------------| 
---------------------------------------------------------------------------------------| 
---------------------------------------------------------------------------------------| 

  'Are you a god...' 
E|------------------------|   |--------------------------------------------------| 
B|--16h18p16--------------|   |--16----16----16----21----21----21----21----21----| 
G|-----------18-15----15--|   |-----18----18----18----18----18----18----18----18-| 
D|-----------------15-----|   |--------------------------------------------------| 
A|------------------------|   |--------------------------------------------------| 
E|------------------------|x8 |--------------------------------------------------| 

  'Kick someone enough...'         'Better it's you than me...' 
E|--------------16-----------|    |-------------------| 
B|-----------14----14--------|    |-------------------| 
G|--------13----------13-----|    |-------------------| 
D|--11-15----------------15--|    |--11--13h15--11----| 
A|---------------------------|    |-------------------| 
E|---------------------------|x8  |-------------------| 

  'Censor the time and the place and remember...' 
E|------------------------------------------------------------------------------| 
B|------------------------------------------------------------------------------| 
G|------------------------------------------------------------------------------| 
D|--8-8-8-7-7-7-8-8-8-7-7-7-8-8-8-7-7-7-8-8-8-7-7-7-----------------------------| 
A|--8-8-8-7-7-7-8-8-8-7-7-7-8-8-8-7-7-7-8-8-8-7-7-7-555555555555333333333333----| 
E|--6-6-6-5-5-5-6-6-6-5-5-5-6-6-6-5-5-5-6-6-6-5-5-5-666666666666555555555555----|x2 


 Guitar Solo 
E|---------------------------------------------------------------------- 
B|---------------------------------------------------------------------- 
G|-6-8-6-8b10-10r8-6-8-6---------8-6---------------6-8-6-6h8~~-6-5-5~~~--- 
D|-----------------------8-6-6h8-----8-6-------6-8---------------------- 
A|---------------------------------------8-6-8-------------------------- 
E|---------------------------------------------------------------------- 

----------------------------------------------------------------- 
-14h16p14----14h16p14----14h16p14----14h16p14----16b18---16b18--- 
----------15----------15----------15----------15----------------- 
----------------------------------------------------------------- 
----------------------------------------------------------------- 
----------------------------------------------------------------- 

  During this next part he tremolo picks until the solo ends ringing out on the 13 
----------------------------------------------------------------| 
--11-13-16--14-16--14-18--14-18--14-16--14-16--14-11-14-13------| 
----------------------------------------------------------------| 
----------------------------------------------------------------| 
----------------------------------------------------------------| 
----------------------------------------------------------------| 


  Rhythm during the guitar solo 
E|------------------------------------------------------------------------------ 
B|------------------------------------------------------------------------------ 
G|------------------------------------------------------------------------------ 
D|--8-8-8-7-7-7-8-8-8-7-7-7--------------8-8-8-7-7-7-8-8-8-7-7-7---------------- 
A|--8-8-8-7-7-7-8-8-8-7-7-7-555555333333-8-8-8-7-7-7-8-8-8-7-7-7-555555333333--- 
E|--6-6-6-5-5-5-6-6-6-5-5-5-666666555555-6-6-6-5-5-5-6-6-6-5-5-5-666666555555--- 

---------------------------------------------------------------------------------- 
---------------------------------------------------------------------------------- 
---------------------------------------------------------------------------------- 
--8-8-8-7-7-7-8-8-8-7-7-7-------------------------------------------444444444444-- 
--8-8-8-7-7-7-8-8-8-7-7-7-555555333333-888888-777777-888888-777777--444444444444-- 
--6-6-6-5-5-5-6-6-6-5-5-5-666666555555-666666-555555-666666-555555--222222222222-- 
  * * * * * * * * * * * *              ****** ****** ****** ****** 

-------------------------------------------------------| 
-------------------------------------------------------| 
--888888888888-666666666666-5-5-5-5-5-5-5-5-5-5-5-5----| 
----------------------------3-3-3-3-3-3-3-3-3-3-3-3----| 
--666666666666-444444444444-4-4-4-4-4-4-4-4-4-4-4-4----| 
-------------------------------------------------------| 
                            * * * * * * 


'I see them feigning for a stranglehold on all of us'  
E|----------------------------------------------------------------------------------- 
B|----------------------------------------------------------------------------------- 
G|------------------------------------------------------6-6-6-6-8-8-8-8-10-10-10-10-- 
D|--------------------------6-6-6-6-8-8-8-8-10-10-10-10------------------------------ 
A|--4-4-4-4-6-6-6-6-8-8-8-8---------------------------------------------------------- 
E|----------------------------------------------------------------------------------- 

---------------------------------------------------------------------------------------| 
--------------------------------------13-13-13-13-14-14-14-14-13-13-13-13--------------| 
--11-11-11-11-13-13-13-13-15-15-15-15-------------------------------------15-15-15-15--| 
---------------------------------------------------------------------------------------| 
---------------------------------------------------------------------------------------| 
---------------------------------------------------------------------------------------| 

  'Are you a god...' 
E|------------------------|   |--------------------------------------------------| 
B|--16h18p16--------------|   |--16----16----16----21----21----21----21----21----| 
G|-----------18-15----15--|   |-----18----18----18----18----18----18----18----18-| 
D|-----------------15-----|   |--------------------------------------------------| 
A|------------------------|   |--------------------------------------------------| 
E|------------------------|x8 |--------------------------------------------------| 

  'Kick someone enough...'          Fin 
E|--------------16-----------|    |-------------------| 
B|-----------14----14--------|    |-------------------| 
G|--------13----------13-----|    |-------------------| 
D|--11-15----------------15--|    |--11---------------| 
A|---------------------------|    |-------------------| 
E|---------------------------|x8  |-------------------| 



************************************ 

| /   slide up 
| \   slide down 
| h   hammer-on 
| p   pull-off 
| ~   vibrato 
| +   harmonic 
| x   Mute note 
| b   Bend 
| pb  Pre-bend 
| br  Bend release 
| pbr Pre-bend release 
| brb Bend release bend 
| *   Palm Mute 

************************************ 

roll up this ad to continue

share this page

See Also: