E-Chords
Hail The Sun

Disappearing Syndrome(Tabs)

Hail The Sun

Key: E
Tuning: Standard (E A D G B E) 

Guitar 1 - Right Speaker 
Guitar 2 - Left Speaker 


Intro 
Guitar 1: 
E||-------------------------------------------------------| 
B||-------------------------------------------------------| 
G||-------------------------------------------------------| 
D||------------------------------------------5~---5~---5--| x2 
A||--3~---3~---3~---3~---3~---3~---3~---3~---3~---3~---3--| 
E||--4~---4~---4~---4~---4~---4~---4~---4~----------------| 
     .    .    .    .    .    .    .    .    .    .    . 


E||-------------------------------------------------------| 
B||-------------------------------------------------------| 
G||-------------------------------------------------------| 
D||---------------------------5~---5~---5~---5~---5~---5--| 
A||--3~---3~---3~---3~---3~---3~---3~---3~---3~---3~---3--| 
E||--4~---4~---4~---4~---4~---4~---4~---4~----------------| 
     .    .    .    .    .    .    .    .    .    .    . 


E||-----------------------------------------| 
B||-----------------------------------------| 
G||-----------------------------------------| 
D||-------5~---5~---5~---5~---5~---5~---5~--| 
A||--3~---3~---3~---3~---3~---3~---3~---3~--| 
E||--4~---4~---4~---4~---4~---4~---4~---4~--| 
     .    . 


Guitar 2: 
E||-------------------------------------------------------| 
B||-------------------------------------------------------| 
G||-------------------------------------------------------| 
D||--3~---3~---3~---3~---3~---3~---3~---3~---3~---3~---3--| x2 
A||--3~---3~---3~---3~---3~---3~---3~---3~---3~---3~---3--| 
E||--1~---1~---1~---1~---1~---1~---1~---1~---1~---1~---1--| 
     .    .    .    .    .    .    .    .    .    .    . 


E||-------------------------------------------------------| 
B||-------------------------------------------------------| 
G||-------1~---1~---1~---1~---1~---1~---1~---1~---1~---1--| 
D||--3~---3~---3~---3~---3~---3~---3~---3~---3~---3~---3--| 
A||--3~---3~---3~---3~---3~---3~---3~---3~---3~---3~---3--| 
E||--1~---------------------------------------------------| 
     .    .    .    .    .    .    .    .    .    .    . 


E||-----------------1~---1~---1~---1~---1~---1~---1~---1~--| 
B||------------1~---1~---1~---1~---1~---1~---1~---1~---1~--| 
G||--1~---1~---1~---1~---1~---1~---1~---1~---1~---1~---1~--| 
D||--3~---3~---3~------------------------------------------| 
A||--3~---3~-----------------------------------------------| 
E||--------------------------------------------------------| 
     .    .    .    . 



Riff 
Guitar 1: 
E||--1~---1~--/--1313---13---1313~------------------------------------------------| 
B||--1~---1~--/--1313---13---1313~------------------------------------------------| 
G||--1~---1~--/--1313---13---1313~-----------------------13-15-13-12--------------| 
D||------------------------------------------15-13-------------------15-13--------| 
A||------------------------------------15-13-------15-13-------------------15-13--| 
E||-------------------------------------------------------------------------------| 


E||--------------------13----15--------------------------------------------------------------| 
B||--------------13h16----16----16-13----------------------------------11h13-13b16--11~--13--| 
G||--------12h15----------------------15-13----------------------10h13-----------------------| 
D||--13h15----------------------------------15-13----------10h13-----------------------------| 
A||-----------------------------------------------15-10h13-----------------------------------| 
E||------------------------------------------------------------------------------------------| 


E||--1~---1~--/--1313---13---1313~----------------------------------------------| 
B||--1~---1~--/--1313---13---1313~----------------------------------------------| 
G||--1~---1~--/--1313---13---1313~---------------------13-15-13-12--------------| 
D||----------------------------------------15-13-------------------15-13--------| 
A||----------------------------------15-13-------15-13-------------------15-13--| 
E||-----------------------------------------------------------------------------| 

(^ On repeat: ) 
E||--1-----1~--/--13-----13~-- 
B||--1-----1~--/--13-----13~-- 
G||--1-----1~--/--13-----13~-- 


E||------------------------------------------------------------------| 
B||------------------------------------------------------------------| 
G||--10/1212121212121212-1010101010101010-888888888888-555555555555--| 
D||------------------------------------------------------------------| (Repeat All) 
A||------------------------------------------------------------------| 
E||------------------------------------------------------------------| 


Guitar 2: 
E||--1~---1~--/--8-8---8---8-8~----------------------------------| 
B||--1~---1~--/--8-8---8---8-8~----------------------------------| 
G||--1~---1~--/--8-8---8---8-8~----------------------------------| 
D||---------------------------------------------6-8-6-5----------| 
A||-------------------------------------8-6-------------8-6------| 
E||---------------------------------8-6-----8-6-------------8-6--| 


E||-------------------------------------------------| 
B||--8~---8~---8--6~---6~--6--4~---4~---4-----------| 
G||--8~---8~---8--5~---5~--5--3~---3~---3-----------| 
D||-------------------------------------------------| 
A||----------------------------------------6\---6\--| 
E||-------------------------------------------------| 


E||--1~---1~--/--8-8---8---8-8~----------------------------------| 
B||--1~---1~--/--8-8---8---8-8~----------------------------------| 
G||--1~---1~--/--8-8---8---8-8~----------------------------------| 
D||---------------------------------------------6-8-6-5----------| 
A||-------------------------------------8-6-------------8-6------| 
E||---------------------------------8-6-----8-6-------------8-6--| 


E||---------------------8-11-8-------11-13/16-15h16p15----13-15-13-------13--------------------| 
B||-------------------9--------11/13-------------------16----------14-16----16-13-14-16-14-13--| 
G||--------------8-10--------------------------------------------------------------------------| 
D||---------8-10-------------------------------------------------------------------------------| 
A||--6-8/11------------------------------------------------------------------------------------| 
E||--------------------------------------------------------------------------------------------| 



E||--1~---1~--/--8-8---8---8-8~----------------------------------| 
B||--1~---1~--/--8-8---8---8-8~----------------------------------| 
G||--1~---1~--/--8-8---8---8-8~----------------------------------| 
D||---------------------------------------------6-8-6-5----------| 
A||-------------------------------------8-6-------------8-6------| 
E||---------------------------------8-6-----8-6-------------8-6--| 


E||-------------------------------------------------| 
B||--8~---8~---8--6~---6~--6--4~---4~---4-----------| 
G||--8~---8~---8--5~---5~--5--3~---3~---3-----------| 
D||-------------------------------------------------| 
A||----------------------------------------6\---6\--| 
E||-------------------------------------------------| 


E||--1~---1~--/--8-----8~-------------------------------------| 
B||--1~---1~--/--8-----8~-------------------------------------| 
G||--1~---1~--/--8-----8~-------------------------------------| 
D||------------------------------------------6-8-6-5----------| 
A||----------------------------------8-6-------------8-6------| 
E||------------------------------8-6-----8-6-------------8-6--| 


E||-----------------------------------------------------------| 
B||--1111111111111111-999999999999-888888888888-444444444444--| 
G||-----------------------------------------------------------| 
D||-----------------------------------------------------------| 
A||-----------------------------------------------------------| 
E||-----------------------------------------------------------| 
     (^ 11's) 


Guitar 1/2: 
E||--------------| 
B||--------------| 
G||--5---5---5~--| 
D||--3---3---3~--| 
A||--4---4---4~--| 
E||--------------| 



Pre-Verse 
Guitar 1: 
E||-------------------------------------------------------------------| 
B||-------------------------------------------------------------------| 
G||-------------------------------------------------------------------| 
D||--3--3--3--333333-3--3--3--333--3--5--5--5--5555555--5--5--555--5--| x3 
A||--1--1--1--111111-1--1--1--111--1--3--3--3--3333333--3--3--333--3--| 
E||-------------------------------------------------------------------| 
     .  .  .  ...... .  .  .  ...  .  .  .  .  .......  .  .  ...  . 

E||---------------------------------------| 
B||---------------------------------------| 
G||---------------------------------------| 
D||--3--3--3--333333-3--3--3--333--3--5~--| 
A||--1--1--1--111111-1--1--1--111--1--3~--| 
E||---------------------------------------| 
     .  .  .  ...... .  .  .  ...  .  . 


Guitar 2: 
E||----------------------------------------------------------------------| 
B||----------------------------------------------------------------------| 
G||--1--1--1--111111-1--1--1--111--1--3--3--3--333333--5-----5-----5-----| 
D||--3--3--3--333333-3--3--3--333--3--5--5--5--555555-----6-----6-----6--| x3 
A||----------------------------------------------------------------------| 
E||----------------------------------------------------------------------| 
     .  .  .  ...... .  .  .  ...  .  .  .  .  ......  .  .  .  .  .  . 

E||-----------------------------------------------| 
B||-----------------------------------------------| 
G||--1--1--1--111111-1--1--1--111--1--5~------6~--| 
D||--3--3--3--333333-3--3--3--333--3--6~----------| 
A||-----------------------------------------------| 
E||-----------------------------------------------| 
     .  .  .  ...... .  .  .  ...  . 



Verse 
Guitar 1: 
E||-------------------------------------------------| 
B||-------------------------------------------------| 
G||--1---1---1---1---1---1---3---3---3---3---3---3--| 
D||--x---x---x---x---x---x---x---x---x---x---x---x--| x2 
A||--1---1---1---1---1---1---3---3---3---3---3---3--| 
E||-------------------------------------------------| 


Guitar 1: 
E||---------------------------------------------------| 
B||---------------------------------------------------| 
G||--1---1---1---1---1---1---3---3---3---3---3---3----| 
D||--x---x---x---x---x---x---x---x---x---x---x---x----| x2 
A||--1-1-1-1-1-1-1-1-1-1-1-1-3-3-3-3-3-3-3-3-3-3-3-3--| 
E||---------------------------------------------------| 
       .   .   .   .   .   .   .   .   .   .   .   . 

E||--------------------------------------------------| 
B||--------------------------------------------------| 
G||--1---1---1---1---1---1---3---3---3---6---6---6~--| 
D||--x---x---x---x---x---x---x---x---x---x---x---x---| 
A||--1-1-1-1-1-1-1-1-1-1-1-1-3-3-3-3-3-3-3-3-3-3-3~--| 
E||--------------------------------------------------| 
       .   .   .   .   .   .   .   .   .   .   . 

Guitar 2: 
E||---------------------------------------------------| 
E||---------------------------------------------------| 
B||---------------------------------------------------| 
G||--3---3---3---3---3---3---5---5---5---5---5---5----| 
D||--1---1---1---1---1---1---3---3---3---3---3---3----| 
A||--1-1-1-1-1-1-1-1-1-1-1-1-3-3-3-3-3-3-4-4-4-4-4-4--| 
       .   .   .   .   .   .   .   .   .   .   .   . 

E||--------------------------------------------------| 
E||--------------------------------------------------| 
B||--------------------------------------------------| 
G||--3---3---3---3---3---3---5---5---5---5---5---5~--| 
D||--1---1---1---1---1---1---3---3---3---3---3---3~--| 
A||--1-1-1-1-1-1-1-1-1-1-1-1-3-3-3-3-3-3-4-4-4-4-4~--| 
       .   .   .   .   .   .   .   .   .   .   . 



Pre-Chorus 
Guitar 1/2: 
E||-------------|-------------| 
B||-------------|--2-2--------| 
G||--3-3---3-3--|--x-x---5-5--| 
D||--2-2---2-2--|--2-2---x-x--| 
A||-------------|--------3-4--| 
E||-------------|-------------| 


E||--------------------------------------------------| 
B||--------------------------------------------------| 
G||---------------------------------------3-3---3-3--| 
D||------1-----5-----1-----5-----1-----5--2-2---2-2--| 
A||----3-----3-----3-----3-----3-----3---------------| 
E||--1-----4-----1-----4-----1-----4-----------------| 
     . . . . . . . . . . . . . . . . . . 


E||---------------------------------------| 
B||---------------------------------------| 
G||---------------------------------------| 
D||------1-----5-----1-----5-----1-----5--| 
A||----3-----3-----3-----3-----3-----3----| 
E||--1-----4-----1-----4-----1-----4------| 
     . . . . . . . . . . . . . . . . . . 


Guitar 1: 
E||-------------------------| 
B||--2-2--------------------| 
G||--x-x---5-5---3-3---3-3--| 
D||--2-2---x-x---2-2---2-2--| 
A||--------3-4--------------| 
E||-------------------------| 


Guitar 2: 
E||-------------------------| 
B||--2-2--------------------| 
G||--x-x---5-5---5-5---3-3--| 
D||--2-2---x-x---x-x---2-2--| 
A||--------3-4---3-4--------| 
E||-------------------------| 



Chorus 
Guitar 1: 
E||-------------------------/9--13--12~------------| 
B||--/8-----------8~---9~--------------------11-9--| 
G||------8--------------------------------10-------| 
D||---------10~------------------------------------| 
A||------------------------------------------------| 
E||------------------------------------------------| 


E||--------------------------------------------------| 
B||--/8------------------------------------11-13-----| 
G||------8--------8~---10~-------12--10~---------10--| 
D||---------10~--------------11----------------------| x2 
A||--------------------------------------------------| 
E||--------------------------------------------------| 


Guitar 2: 
E||----------------------------------------|--------------------6-------------------| 
B||--4--4--4~----4----4\---6--6--6~---4-5--|--4--4--4~--------6-----6--6--6~---4-5--| 
G||--5--5--5~----5----5\---6--6--6~---4-5--|--5--5--5~------5-------6--6--6~---4-5--| 
D||--------------x----x\-------------------|--------------5-------------------------| x2 
A||--------------6----6\-------------------|------------6---------------------------| 
E||----------------------------------------|----------------------------------------| 



Guitar 1: 
E||----------------------------------------------------------------| 
B||----------------------------------------------------------------| 
G||--10b12~------12~---12r10-12~---12r10p8-8h10~-----10--8--10b12--| 
D||----------------------------------------------------------------| 
A||----------------------------------------------------------------| 
E||----------------------------------------------------------------| 


E||-------8-------------------------11-----------------------------| 
B||-----8---11b13~--------13r11--9------9h11~-----11p9---------8~--| 
G||--10------------------------------------------------10p8~-------| 
D||----------------------------------------------------------------| 
A||----------------------------------------------------------------| 
E||----------------------------------------------------------------| 


E||---------------------------------| 
B||--8p6----------------------------| 
G||------8p5~---6/8~----6-5~---br~--| 
D||---------------------------------| 
A||---------------------------------| 
E||---------------------------------| 


Guitar 2: 
E||-------------------------------------------------------------| 
B||-------------------11-11-11~--------9-9-9~--------11-11-11~--| 
G||--10-10-10~--------x--x--x----------x-x-x---------x--x--x----| 
D||--x--x--x----------10-10-10~--------8-8-8~--------10-10-10~--| 
A||--8--8--8~---------------------------------------------------| 
E||-------------------------------------------------------------| 



Riff 
Guitar 1: 
E||--1~---1~--/--1313---13---1313~------------------------------------------------| 
B||--1~---1~--/--1313---13---1313~------------------------------------------------| 
G||--1~---1~--/--1313---13---1313~-----------------------13-15-13-12--------------| 
D||------------------------------------------15-13-------------------15-13--------| 
A||------------------------------------15-13-------15-13-------------------15-13--| 
E||-------------------------------------------------------------------------------| 


E||--------------------13----15--------------------------------------------------------------| 
B||--------------13h16----16----16-13----------------------------------11h13-13b16--11~--13--| 
G||--------12h15----------------------15-13----------------------10h13-----------------------| 
D||--13h15----------------------------------15-13----------10h13-----------------------------| 
A||-----------------------------------------------15-10h13-----------------------------------| 
E||------------------------------------------------------------------------------------------| 


Guitar 2: 
E||--1~---1~--/--8-8---8---8-8~----------------------------------| 
B||--1~---1~--/--8-8---8---8-8~----------------------------------| 
G||--1~---1~--/--8-8---8---8-8~----------------------------------| 
D||---------------------------------------------6-8-6-5----------| 
A||-------------------------------------8-6-------------8-6------| 
E||---------------------------------8-6-----8-6-------------8-6--| 


E||-------------------------------------------------| 
B||--8~---8~---8--6~---6~--6--4~---4~---4-----------| 
G||--8~---8~---8--5~---5~--5--3~---3~---3-----------| 
D||-------------------------------------------------| 
A||----------------------------------------6\---6\--| 
E||-------------------------------------------------| 



Riff 2 
Guitar 1: 
E||-------------------------------------------------------------------| 
B||--------------------------------------------------------------4~\--| 
G||--1-1---------------1-1---------------------3-3---------------3~\--| 
D||--x-x---------------x-x---------------------x-x---------------x----| 
A||--1-1---------------1-1---------------------3-3---------------3~\--| 
E||-------------------------------------------------------------------| 


Guitar 2: 
E||------1-1---1--1--1-----1-1---1--1--1--1--1-----3-3---3--3--3------| 
B||--------------------------------------------------------------4~\--| 
G||--1-1---------------1-1---------------------3-3---------------3~\--| 
D||--x-x---------------x-x---------------------x-x---------------x----| 
A||--1-1---------------1-1---------------------3-3---------------3~\--| 
E||-------------------------------------------------------------------| 



Pre-Verse 
Guitar 1: 
E||-------------------| 
B||-------------------| 
G||-------------------| 
D||--6~-----------8~--| x4 
A||--4~-----------7~--| 
E||-------------------| 


Guitar 2: 
E||---------------------------------------------------| 
B||---------6------------------------6------------5~--| 
G||--6~--------5--6h8~---6~---5~--------5--6h8~-------| 
D||---------------------------------------------------| 
A||---------------------------------------------------| 
E||---------------------------------------------------| 


E||----------------------------------------------| 
B||---------6------------------------6-----------| 
G||--6~--------5--6h8~---6~---5~--------5--8b9~--| 
D||----------------------------------------------| 
A||----------------------------------------------| 
E||----------------------------------------------| 



Verse 
Guitar 1: 
E||-------------------------------------------------| 
B||-------------------------------------------------| 
G||--1---1---1---1---1---1---3---3---3---3---3---3--| 
D||--x---x---x---x---x---x---x---x---x---x---x---x--| x2 
A||--1---1---1---1---1---1---3---3---3---3---3---3--| 
E||-------------------------------------------------| 


Guitar 1: 
E||---------------------------------------------------| 
B||---------------------------------------------------| 
G||--1---1---1---1---1---1---3---3---3---3---3---3----| 
D||--x---x---x---x---x---x---x---x---x---x---x---x----| x2 
A||--1-1-1-1-1-1-1-1-1-1-1-1-3-3-3-3-3-3-3-3-3-3-3-3--| 
E||---------------------------------------------------| 
       .   .   .   .   .   .   .   .   .   .   .   . 

E||--------------------------------------------------| 
B||--------------------------------------------------| 
G||--1---1---1---1---1---1---3---3---3---6---6---6~--| 
D||--x---x---x---x---x---x---x---x---x---x---x---x---| 
A||--1-1-1-1-1-1-1-1-1-1-1-1-3-3-3-3-3-3-3-3-3-3-3~--| 
E||--------------------------------------------------| 
       .   .   .   .   .   .   .   .   .   .   . 

Guitar 2: 
E||---------------------------------------------------| 
E||---------------------------------------------------| 
B||---------------------------------------------------| 
G||--3---3---3---3---3---3---5---5---5---5---5---5----| 
D||--1---1---1---1---1---1---3---3---3---3---3---3----| 
A||--1-1-1-1-1-1-1-1-1-1-1-1-3-3-3-3-3-3-4-4-4-4-4-4--| 
       .   .   .   .   .   .   .   .   .   .   .   . 

E||--------------------------------------------------| 
E||--------------------------------------------------| 
B||--------------------------------------------------| 
G||--3---3---3---3---3---3---5---5---5---5---5---5~--| 
D||--1---1---1---1---1---1---3---3---3---3---3---3~--| 
A||--1-1-1-1-1-1-1-1-1-1-1-1-3-3-3-3-3-3-4-4-4-4-4~--| 
       .   .   .   .   .   .   .   .   .   .   . 



Pre-Chorus 
Guitar 2: 
E||---------------------------------------| 
B||---------------------------------------| 
G||---------------------------------------| 
D||------1-----5-----1-----5-----1-----5--| 
A||----3-----3-----3-----3-----3-----3----| 
E||--1-----4-----1-----4-----1-----4------| 
     . . . . . . . . . . . . . . . . . . 


Guitar 1/2: 
E||-------------| 
B||-------------| 
G||--3-3---3-3--| 
D||--2-2---2-2--| 
A||-------------| 
E||-------------| 


Guitar 2: 
E||---------------------------------------| 
B||---------------------------------------| 
G||---------------------------------------| 
D||------1-----5-----1-----5-----1-----5--| 
A||----3-----3-----3-----3-----3-----3----| 
E||--1-----4-----1-----4-----1-----4------| 
     . . . . . . . . . . . . . . . . . . 


Guitar 1/2: 
E||-------------| 
B||--2-2--------| 
G||--x-x---5-5--| 
D||--2-2---x-x--| 
A||--------3-4--| 
E||-------------| 


E||--------------------------------------------------| 
B||--------------------------------------------------| 
G||---------------------------------------3-3---3-3--| 
D||------1-----5-----1-----5-----1-----5--2-2---2-2--| 
A||----3-----3-----3-----3-----3-----3---------------| 
E||--1-----4-----1-----4-----1-----4-----------------| 
     . . . . . . . . . . . . . . . . . . 


E||---------------------------------------| 
B||---------------------------------------| 
G||---------------------------------------| 
D||------1-----5-----1-----5-----1-----5--| 
A||----3-----3-----3-----3-----3-----3----| 
E||--1-----4-----1-----4-----1-----4------| 
     . . . . . . . . . . . . . . . . . . 


E||-------------------------| 
B||--2-2--------------------| 
G||--x-x---5-5---3-3---1-1--| 
D||--2-2---x-x---2-2---x-x--| x4 
A||--------3-4---------1-1--| 
E||-------------------------| 



Breakdown 
Guitar 1: 
E||--------------------------| 
B||--------------------------| 
G||--------------------------| 
D||--3~----------------------| 
A||--3~------------\pick-\---| 
E||--1-~------------\slide\--| 


E||---------------------------------------------------------| 
B||--4-------------4-------------2-------------2------------| 
G||-----6------6------6------6------5------5------5------5--| 
D||---------3-------------3-------------3-------------3-----| 
A||---------------------------------------------------------| 
E||---------------------------------------------------------| 


E||---------------------------------------------------------| 
B||---------------------------------------------------------| 
G||---------------------------------0------0------0------0--| 
D||--5-------------5-------------6-------------6------------| 
A||-----4------4------4------4----------4-------------4-----| 
E||---------6-------------6---------------------------------| 


Guitar 2: 
E||---------------------------------| 
B||---------------------------------| 
G||---------------------------------| 
D||---------------------------------| x6 
A||--3333~---3333~---3333~---3333~--| 
E||--1111~---1111~---1111~---1111~--| 
     ....    ....    ....    .... 


Guitar 1/2: 
E||-----------------------------------------------| 
B||-----------------------------------------------| 
G||-----------------------------------------------| 
D||-----------------------------------------------| 
A||--3-3-3-3~---3-3-3-3~-----3-3-3~-----3-3-3-3~--| 
E||--1-1-1-1~---1-1-1-1~-----1-1-1~-----1-1-1-1~--| 
     . . . .    . . . .      . . .      . . . . 

E||--------------------------| 
B||--------------------------| 
G||--------------1-----0-----| 
D||----------1h3----3-----1--| 
A||------1h3-----------------| 
E||--1h4---------------------| 



Riff 2 
Guitar 1: 
E||--------------------------------------------| 
B||--------------------------------------------| 
G||--------------------------------------------| 
D||--1010-----10--1010~----1111-----11--1111~--| 
A||--8-8------8---8-8~-----8-8------8---8-8~---| 
E||--------------------------------------------| 


E||--------------------------------------------| 
B||--------------------------------------------| 
G||--1313-----13--1313~----1212-----12--1212~--| 
D||--x-x------x---x-x------x-x------x---x-x----| 
A||--8-8------8---8-8~-----8-8------8---8-8~---| 
E||--------------------------------------------| 


E||--------------------------------------------| 
B||--------------------------------------------| 
G||--------------------------------------------| 
D||--1010-----10--1010~----1111-----11--1111~--| 
A||--8-8------8---8-8~-----8-8------8---8-8~---| 
E||--------------------------------------------| 


E||------------------------------------------| 
B||------------------------------------------| 
G||--1313-----13--1313~----1212-----12---12--| 
D||--x-x------x---x-x------x-x------x----x---| 
A||--8-8------8---8-8~-----8-8------8----8---| 
E||------------------------------------------| 


Guitar 2: 
E||------------------------------------------------------------------------------| 
B||------------------------------------------------------------------------------| 
G||------------------------------------------------------------------------------| 
D||------------------------------------------------------------------------------| 
A||--33-----3--33~----1010-----10--1010~----88-----8--88~----1010-----10--1010~--| 
E||--11-----1--11~----9-9------9---9-9~-----66-----6--66~----8-8------8---8-8~---| 


E||----------------------------------------------------------------------------| 
B||----------------------------------------------------------------------------| 
G||----------------------------------------------------------------------------| 
D||----------------------------------------------------------------------------| 
A||--33-----3--33~----1010-----10--1010~----88-----8--88~----1010-----10---10--| 
E||--11-----1--11~----9-9------9---9-9~-----66-----6--66~----8-8------8----8---| 



Bridge 
Guitar 1: 
E||-------------------------------------------------------| 
B||--------------------------2-----2-----2-----2-----2----| 
G||--3-----3-----3-----3-------5-----5-----5-----5-----5--| 
D||----6-----6-----6-----6-------5-----5-----5-----5------| 
A||------8-----8-----8-----8------------------------------| 
E||-------------------------------------------------------| 


E||--------------------------------------------------------------------------| 
B||--6------6------6------6------9-------9-------9-------9-------9-----------| 
G||----8------8------8------8------12------12------12------12------12----12--| 
D||------10-----10-----10-----10------11------11------11------11------11-----| x2 
A||--------------------------------------------------------------------------| 
E||--------------------------------------------------------------------------| 


Guitar 2: 
E||--6------6------6------6------9-------9-------9-------9-------9-----| 
B||----9------9------9------9------13------13------13------13------13--| 
G||------10-----10-----10-----10------12------12------12------12-------| 
D||--------------------------------------------------------------------| 
A||--------------------------------------------------------------------| 
E||--------------------------------------------------------------------| 


E||--13-------13-------13-------13-------16-------16-------16-------16-------16-----------| 
B||-----16-------16-------16-------16-------20-------20-------20-------20-------20----20--| 
G||--------17-------17-------17-------17-------18-------18-------18-------18-------18-----| 
D||---------------------------------------------------------------------------------------| x2 
A||---------------------------------------------------------------------------------------| 
E||---------------------------------------------------------------------------------------| 


Guitar 2 (Dub): 
E||--------------------------------------------------------------| 
B||--------------------------------------------------------------| 
G||--------------------------------------------------------------| 
D||--------------------------------------------------------------| 
A||--3333333333333~--10101010101010101010101010~---10---10---10--| 
E||--1111111111111~--9-9-9-9-9-9-9-9-9-9-9-9-9~----9----9----9---| 
     .............   . . . . . . . . . . . . . 

E||-------------------------------------------------------------------| 
B||-------------------------------------------------------------------| 
G||-------------------------------------------------------------------| 
D||-------------------------------------------------------------------| x2 
A||--8888888888888~--10101010101010101010101010~---10---10---10---10--| 
E||--6666666666666~--8-8-8-8-8-8-8-8-8-8-8-8-8~----8----8----8----8---| 
     .............   . . . . . . . . . . . . . 



Interlude 
Guitar 1: 
E||---------------------------------------------------| 
B||---------------------------------------------------| 
G||----------------------------0-----0-----0-----0----| 
D||--5-----5-----5-----5-----6-----6-----6-----6------| 
A||----4-----4-----4-----4-------4-----4-----4-----4--| 
E||------6-----6-----6-----6--------------------------| 


E||---------------------------------------------------| 
B||--4-----4-----6-----6-----2-----2-----4-----4------| 
G||----6-----6-----6-----6-----5-----5-----5-----5----| 
D||------3-----3-----3-----3-----3-----3-----3-----3--| 
A||---------------------------------------------------| 
E||---------------------------------------------------| 


E||---------------------------------------------------| 
B||---------------------------------------------------| 
G||----------------------------0-----0-----0-----0----| 
D||--5-----5-----5-----5-----6-----6-----6-----6------| 
A||----4-----4-----4-----4-------4-----4-----4-----4--| 
E||------6-----6-----6-----6--------------------------| 


E||---------------------------------------------------------| 
B||--4-4-4-4-4-4-6-6-6-6-6-6-11-11-11-11-11-11-9-9-9-9-9-9--| 
G||--5-5-5-5-5-5-6-6-6-6-6-6-10-10-10-10-10-10-9-9-9-9-9-9--| 
D||---------------------------------------------------------| 
A||---------------------------------------------------------| 
E||---------------------------------------------------------| 


Guitar 2: 
E||-------------------------------------------------------------------------| 
B||-------------------------------------------------------------------------| 
G||------8~-------6~-------5~-------3~--------------------------------------| 
D||--x-x-x--------x--------x--------x--------5~-------3~-------8~-------6~--| 
A||--x-x-6~-------4~-------3~-------1~-------x--------x--------x--------x---| 
E||--x-x-------------------------------------3~-------1~-------6~-------4~--| 



Guitar 1: 
E||-----------------------------| 
B||-----------------------------| 
G||--3--3--3--3--3--3--3--3--3--| 
D||--2--2--2--2--2--2--2--2--2--| 
A||--3--3--3--3--3--3--3--3--3--| 
E||-----------------------------| 


Guitar 2: 
E||---3--3--3--3--3--3--3--3--3--| 
B||---4--4--4--4--4--4--4--4--4--| 
G||---x--x--x--x--x--x--x--x--x--| 
D||---3--3--3--3--3--3--3--3--3--| 
A||------------------------------| 
E||------------------------------| 



Chorus/Outro 
Guitar 1: 
E||-------------------------/9--13--12~------------| 
B||--/8-----------8~---9~--------------------11-9--| 
G||------8--------------------------------10-------| 
D||---------10~------------------------------------| 
A||------------------------------------------------| 
E||------------------------------------------------| 


E||--------------------------------------------------| 
B||--/8------------------------------------11-13-----| 
G||------8--------8~---10~-------12--10~---------10--| 
D||---------10~--------------11----------------------| x2 
A||--------------------------------------------------| 
E||--------------------------------------------------| 


Guitar 2: 
E||----------------------------------------|--------------------6-------------------| 
B||--4--4--4~----4----4\---6--6--6~---4-5--|--4--4--4~--------6-----6--6--6~---4-5--| 
G||--5--5--5~----5----5\---6--6--6~---4-5--|--5--5--5~------5-------6--6--6~---4-5--| 
D||--------------x----x\-------------------|--------------5-------------------------| x2 
A||--------------6----6\-------------------|------------6---------------------------| 
E||----------------------------------------|----------------------------------------| 



Guitar 1: 
E||----------------------------------------------------------------| 
B||----------------------------------------------------------------| 
G||--10b12~------12~---12r10-12~---12r10p8-8h10~-----10--8--10b12--| 
D||----------------------------------------------------------------| 
A||----------------------------------------------------------------| 
E||----------------------------------------------------------------| 


E||-------8-------------------------11-----------------------------| 
B||-----8---11b13~--------13r11--9------9h11~-----11p9---------8~--| 
G||--10------------------------------------------------10p8~-------| 
D||----------------------------------------------------------------| 
A||----------------------------------------------------------------| 
E||----------------------------------------------------------------| 


E||-----------------------------------------------------------| 
B||--8p6------------------------------------------------------| 
G||------8p5~-------------------------------------------------| 
D||-------------6/8~----6-5~------------6-5~------------6-5~--| 
A||-----------------------------6/8~------------6/8~----------| 
E||-----------------------------------------------------------| 


E||-----------------------------------| 
B||-----------------------------------| 
G||-----------------------------------| 
D||--8~b10~--------6~-----5~----------| 
A||-------------------------------8~--| 
E||-----------------------------------| 


Guitar 2: 
E||-------------------------------------------------------------| 
B||-------------------11-11-11~--------9-9-9~--------11-11-11~--| 
G||--10-10-10~--------x--x--x----------x-x-x---------x--x--x----| 
D||--x--x--x----------10-10-10~--------8-8-8~--------10-10-10~--| x3 
A||--8--8--8~---------------------------------------------------| 
E||-------------------------------------------------------------| 


E||-------| 
B||-------| 
G||--10~--| 
D||--x----| 
A||--8~---| 
E||-------| 




Tablature Legend 
---------------- 
 h   hammer-on 
 p   pull-off 
 b   bend 
 pb  pre-bend 
 r   release bend 
 ~   hold / vibrato 
 .  palm mute 
 /   slide up 
 \   slide down 
 *   pinch harmonic 
 '   natural harmonic 
 x   mute note 
 T   tap 

roll up this ad to continue

share this page

See Also: