E-Chords
Hail The Sun

Dead Messages(Tabs)

Hail The Sun

Intro: 

Gtr.1 

e|-------------------------------------------------| 
B|-------------------------------------------------| 
G|-------7-----------7-----------7-----------7-----| 
D|-----9---9-------9---9-------9---9-------9---9---| 
A|---9-------9---9-------9---9-------9---9-------9-| 
E|-7-----------7-----------7-----------7-----------| 

|--------------------------------------------------| 
|--------------------------------------------------| 
|-------7-----------7-----------7-----------7------| 
|-----8---8-------8---8-------5---5-------5---5----| 
|---5-------5---5-------5---5-------5---5-------5--| 
|-6-----------6-----------6-----------6------------| 

|--------------------------------------------------| 
|--------------------------------------------------| 
|-------4-----------4-----------4-----------4------| 
|-----4---4-------4---4-------4---4-------4---4----| 
|---2-------2---2-------2---2-------2---2-------2--| 
|-3-----------3-----------3-----------3------------| 

|--------------------------------------------------| 
|--------------------------------------------------| 
|-------4-----------4-----------3-----------3------| 
|-----4---4-------4---4-------4---4-------4--------| 
|---4-------4---4-------4---4-------4---4----------| 
|-2-----------2-----------2-----------2------------| 

|-------------------------------------------------| 
|-------------------------------------------------| 
|-------7-----------7-----------7-----------7-----| 
|-----9---9-------9---9-------9---9-------9---9---| 
|---9-------9---9-------9---9-------9---9-------9-| 
|-7-----------7-----------7-----------7-----------| 

|--------------------------------------------------| 
|--------------------------------------------------| 
|-------7-----------7-----------7-----------7------| 
|-----8---8-------8---8-------5---5-------5---5----| 
|---5-------5---5-------5---5-------5---5-------5--| 
|-6-----------6-----------6-----------6------------| 

|--------------------------------------------------| 
|--------------------------------------------------| 
|-------4-----------4-----------4-----------4------| 
|-----4---4-------4---4-------4---4-------4---4----| 
|---2-------2---2-------2---2-------2---2-------2--| 
|-3-----------3-----------3-----------3------------| 

|--------------------------------------------------| 
|--------------------------------------------------| 
|-------4-----------4-----------3------------------| 
|-----4---4-------4---4-------4--------------------| 
|---4-------4---4-------4---4----------------------| 
|-2-----------2-----------2------------------------| 

|----------------------------------------------| 
|-3--3-3-3--3-3-2--2-2-2--2-2--2--2-2-2--2-2-0-| 
|-4--4-4-4--4-4-4--4-4-4--4-4--2--2-2-2--2-2-0-| 
|-4--4-4-4--4-4-4--4-4-4--4-4--4--4-4-4--4-4-2-| 
|-2--2-2-2--2-2-2--2-2-2--2-2--4--4-4-4--4-4-2-| 
|------------------------------2--2-2-2--2-2-0-| 


Gtr.2 

|-------------------------------------------------------------------------| 
|-------------------------------------------------------------------------| 
|-------14----14----------14----14----------14----14----------14----14----| 
|----12----12----12----12----12----12----12----12----12----12----12----12-| 
|-14----------------14----------------14----------------14----------------| 
|-------------------------------------------------------------------------| 

|-------------------------------------------------------------------------| 
|-------------------------------------------------------------------------| 
|-------14----14----------14----14----------12----12----------11----11----| 
|----12----12----12----12----12----12----12----12----12----12----12----12-| 
|-13----------------13----------------13----------------13----------------| 
|-------------------------------------------------------------------------| 

|--------------------------------------------------------------| 
|--------------------------------------------------------------| 
|------11---11--------11---11--------11---11--------11---11----| 
|----9----9----9----9----9----9----9----9----9----9----9----9--| 
|-10-------------10-------------10-------------10--------------| 
|--------------------------------------------------------------| 

|---------------------------------------------| 
|---------------------------------------------| 
|-----9---9-------9---9-------6h7-6h7-6h7-6~--| 
|---8---8---8---8---8---8---8-----------------| 
|-9-----------9-----------9-------------------| 
|---------------------------------------------| 

|-------------------------------------------------------------------------| 
|-------------------------------------------------------------------------| 
|-------14----14----------14----14----------14----14----------14----14----| 
|----12----12----12----12----12----12----12----12----12----12----12----12-| 
|-14----------------14----------------14----------------14----------------| 
|-------------------------------------------------------------------------| 

|-------------------------------------------------------------------------| 
|-------------------------------------------------------------------------| 
|-------14----14----------14----14----------12----12----------11----11----| 
|----12----12----12----12----12----12----12----12----12----12----12----12-| 
|-13----------------13----------------13----------------13----------------| 
|-------------------------------------------------------------------------| 

|--------------------------------------------------------------| 
|--------------------------------------------------------------| 
|------11---11--------11---11--------11---11--------11---11----| 
|----9----9----9----9----9----9----9----9----9----9----9----9--| 
|-10-------------10-------------10-------------10--------------| 
|--------------------------------------------------------------| 

|---------------------------------------------| 
|---------------------------------------------| 
|-----9---9-------9---9-------6h7-6h7-6h7-6~--| 
|---8---8---8---8---8---8---8-----------------| 
|-9-----------9-----------9-------------------| 
|---------------------------------------------| 



Breakdown: 

Guitar 1: 

|-----------------------------------------| 
|-7-777-7777/--8-8-8--7-777-7777/--8-8-8--| 
|-7-777-7777/--7-7-7--7-777-7777/--7-7-7--| 
|-9-999-9999/--8-8-8--9-999-9999/--8-8-8--| 
|-9-999-9999/---------9-999-9999/---------| 
|-7-777-7777/--6-6-6--7-777-7777/--6-6-6--| 

Guitar 2: 

|-------------17-14-----------17-14-------------17-14-------------17-14---| 
|----15-14-------------15-14-------------15-14-------------15-14----------| 
|-16-------16-------16-------16-------16-------16-------16-------16-------| 
|-------------------------------------------------------------------------| 
|-------------------------------------------------------------------------| 
|-------------------------------------------------------------------------| 

|-------------17-14-----------17-14-------------17-14-------------17-14---| 
|----15-14-------------15-14-------------15-14-------------15-14----------| 
|-16-------16-------16-------16-------16-------16-------16-------16-------| 
|-------------------------------------------------------------------------| 
|-------------------------------------------------------------------------| 
|-------------------------------------------------------------------------| 


Guitar 3(this guitar plays only in this part of the song): 

|-------------------------------------------------------------------------| 
|-------------------------------------------------------------------------| 
|-------------------------------------------------------------------------| 
|-11-12-11----14-12-11-12-11----14-12-11-12-11----14-12-11-12-11----14-12-| 
|----------14----------------14----------------14----------------14-------| 
|-------------------------------------------------------------------------| 

|-------------------------------------------------------------------------| 
|-------------------------------------------------------------------------| 
|-------------------------------------------------------------------------| 
|-11-12-11----14-12-11-12-11----14-12-11-12-11----14-12-11-12-11----14-12-| 
|----------14----------------14----------------14----------------14-------| 
|-------------------------------------------------------------------------| 


Verse: 

Guitar 1: 

Its just strumming power chords in triplets, most of the time. 

|---------------------------------------------| 
|---------------------------------------------| 
|---------------------------------------------| 
|-9-999-999-999-999-999-8-888-888-888-888-888-| 
|-9-999-999-999-999-999-9-999-999-999-999-999-| 
|-7-777-777-777-777-777-6-666-666-666-666-666-| 

|---------------------------------------------| 
|---------------------------------------------| 
|---------------------------------------------| 
|-5-555-555-555-555-555-4-444-444-444-444-444-| 
|-5-555-555-555-555-555-4-444-444-444-444-444-| 
|-3-333-333-333-333-333-2-222-222-222-222-222-| 

|---------------------------------------------| 
|---------------------------------------------| 
|---------------------------------------------| 
|-9-999-999-999-999-999-8-888-888-888-888-888-| 
|-9-999-999-999-999-999-9-999-999-999-999-999-| 
|-7-777-777-777-777-777-6-666-666-666-666-666-| 

|---------------------------------------------| 
|---------------------------------------------| 
|---------------------------------------------| 
|-5-555-555-555-555-555-4-444-444-444-444-444-| 
|-5-555-555-555-555-555-4-444-444-444-444-444-| 
|-3-333-333-333-333-333-2-222-222-222-222-222-| 


Guitar 2: 

Idk if this is 100% correct. 

|-77-77-77-77-55-77-99-99-99-99-99-99-1010-1010-1010-1010-1010-| 
|-77-77-77-77-77-77-77-77-77-77-77-77-1212-1212-1212-1212-1212-| 
|--------------------------------------------------------------| 
|--------------------------------------------------------------| 
|--------------------------------------------------------------| 
|--------------------------------------------------------------| 

|-9---9/10-1010-1010--9-9--9-9--9-9--| 
|-10-10/12-1212-1212--1010-1010-1010-| 
|------------------------------------| 
|------------------------------------| 
|------------------------------------| 
|------------------------------------| 

|-77-77-77-77-55-77-99-99-99-99-99-99-1010-1010-1010-1010-1010-| 
|-77-77-77-77-77-77-77-77-77-77-77-77-1212-1212-1212-1212-1212-| 
|--------------------------------------------------------------| 
|--------------------------------------------------------------| 
|--------------------------------------------------------------| 
|--------------------------------------------------------------| 

|-9---9/10-1010-1010--9-9--9-9--9-9--| 
|-10-10/12-1212-1212--1010-1010-1010-| 
|------------------------------------| 
|------------------------------------| 
|------------------------------------| 
|------------------------------------| 

PreChorus: 

Both guitars: 

|-----------------------------------------| 
|-7-777-7777/--8-8-8--7-777-7777/--8-8-8--| 
|-7-777-7777/--7-7-7--7-777-7777/--7-7-7--| 
|-9-999-9999/--8-8-8--9-999-9999/--8-8-8--| 
|-9-999-9999/---------9-999-9999/---------| 
|-7-777-7777/--6-6-6--7-777-7777/--6-6-6--| 


Chorus: 

Guitar 1: 

|---------------------------------------------------------| 
|-7-7-7-7-7-7-8-8-7-7-7-7-8-8-8-8-------------------------| 
|-7-7-7-7-7-7-7-7-7-7-7-7-7-7-7-7-4-4-6-4-2-2-2-2-0-0-0-0-| 
|-7-7-7-7-7-7-8-8-7-7-7-7-8-8-8-8-4-4-4-4-4-4-4-4-2-2-2-2-| 
|-5-5-5-5-5-5-----5-5-5-5---------2-2-2-2-4-4-4-4-2-2-2-2-| 
|-------------6-6---------6-6-6-6---------2-2-2-2-0-0-0-0-| 

|------------------------------------------------------------------| 
|------------------------------------------------------------------| 
|-444444444444-66666666666-11/7/4-9/6/7--7/9-7/9/11--11/12-11-9-11-| 
|-xxxxxxxxxxxx-xxxxxxxxxxx--x-x-x-x-x-x--x-x-x-x-x----x-x-----x-x--| 
|-222222222222-44444444444--9/5/2-7/4/5--5/7-5/7/9----9/10-9--7-9--| 
|------------------------------------------------------------------| 

|---------------------------------| 
|---------------------------------| 
|-11/14-14-14-12-11--11-12-14-16~-| 
|--x--x--x--x--x-x---x--x--x--x---| 
|--9/12-12-12-10-9---9--10-12-14~-| 
|---------------------------------| 


Guitar 2: 

|---------------------------------------------------------| 
|-7-7-7-7-7-7-8-8-7-7-7-7-8-8-8-8-------------------------| 
|-7-7-7-7-7-7-7-7-7-7-7-7-7-7-7-7-4-4-6-4-2-2-2-2-0-0-0-0-| 
|-7-7-7-7-7-7-8-8-7-7-7-7-8-8-8-8-4-4-4-4-4-4-4-4-2-2-2-2-| 
|-5-5-5-5-5-5-----5-5-5-5---------2-2-2-2-4-4-4-4-2-2-2-2-| 
|-------------6-6---------6-6-6-6---------2-2-2-2-0-0-0-0-| 

|-----------------------------------------------3--3--------5~-| 
|---------------------------77-77---------------3--3-----------| 
|-444444444444-222222222222-77-77-4--4----0-0---0--0--6--6--7~-| 
|-xxxxxxxxxxxx-xxxxxxxxxxxx-77-77-5--5----2-2---0--0--7--7--9~-| 
|-222222222222-000000000000-55-55-5--5----2-2---2--2--5--5-----| 
|---------------------------------3--3--2-0-0-2-3--3-----------| 


Bridge: 

Guitar 1: 

|---------------------------------------------------------55h7-| 
|--------------------------------------------------------------| 
|-4-4-4-4-44----4-4-4-4-44----7-7-7-7-77----6-6-6-6-66---------|x2 
|-5-5-5-5-55----5-5-5-5-55----9-9-9-9-99----7-7-7-7-77---------| 
|-5-5-5-5-55----5-5-5-5-55----9-9-9-9-99----7-7-7-7-77---------| 
|-3-3-3-3-33----3-3-3-3-33----7-7-7-7-77----5-5-5-5-55---------| 

Guitar 2: 

|-----------------------------------------------| 
|-12p7p0-10p7p0---------------------------------| 
|---------------11-9h11p9p0-7/6~/7/6-----6h7/11-| 
|------------------------------------7h9--------| 
|-----------------------------------------------| 
|-----------------------------------------------| 

|-----------------------------------------------| 
|-12p7p0-10p7p0---------------------------------| 
|---------------11-9h11p9p0-7/6~/7/6-----7h9p7~-| 
|------------------------------------7h9--------| 
|-----------------------------------------------| 
|-----------------------------------------------| 

|-------------------------------------------------7h10----| 
|-12p7p0-10p7p0------------------------------7h10------10-| 
|---------------11-9h11p9p0-7/6~/7/6-----7h9--------------| 
|------------------------------------7h9------------------| 
|---------------------------------------------------------| 
|---------------------------------------------------------| 

|-----------------------------------------------| 
|-12p7p0-10p7p0---------------------------------| 
|---------------11-9h11p9p0-7/6~-9/11-7---------| 
|-----------------------------------------------| 
|-----------------------------------------------| 
|-----------------------------------------------| 

|-----------------------------------------------| 
|-12p7p0-10p7p0---------------------------------| 
|---------------11-9h11p9p0-7/6~/7/6-----6h7/11-| 
|------------------------------------7h9--------| 
|-----------------------------------------------| 
|-----------------------------------------------| 

|-------------------------------------------------| 
|-12p7p0-10p7p0-----------------------------------| 
|---------------11-9h11p9p0-7/6~/7/6-----7h9/11-7-| 
|------------------------------------7h9----------| 
|-------------------------------------------------| 
|-------------------------------------------------| 

|-------------------------------------------------7h10----| 
|-12p7p0-10p7p0------------------------------7h10------10-| 
|---------------11-9h11p9p0-7/6~/7/6-----7h9--------------| 
|------------------------------------7h9------------------| 
|---------------------------------------------------------| 
|---------------------------------------------------------| 

|-----------------------------------------------| 
|-12p7p0-10p7p0---------------------------------| 
|---------------11-9h11p9p0-7/6~-7/6------------| 
|-----------------------------------------------| 
|-----------------------------------------------| 
|-----------------------------------------------| 


Then: 

Guitar 1: 

|---------------------------------------------------| 
|---------------------------------------------------| 
|-------------------------------66--66--6-6-6-6-6-6-| 
|-5~--------5~----7-9~----7~----88--88--8-8-8-8-8-8-| 
|-5~--------5~----7-9~----7~------------------------| 
|-3~----0-2-3~----5-7~----5~----66--66--6-6-6-6-6-6-| 

Guitar 2: 

|----9b10r9------------------9-10-12-13b-| 
|-12---------10------10--12--------------| 
|---------------11-----------------------| 
|----------------------------------------| 
|----------------------------------------| 
|----------------------------------------| 

PreChorus: 

Both guitars: 

|-----------------------------------------| 
|-7-777-7777/--8-8-8--7-777-7777/--8-8-8--| 
|-7-777-7777/--7-7-7--7-777-7777/--7-7-7--| 
|-9-999-9999/--8-8-8--9-999-9999/--8-8-8--| 
|-9-999-9999/---------9-999-9999/---------| 
|-7-777-7777/--6-6-6--7-777-7777/--6-6-6--| 


Chorus again: 

Guitar 1: 

|---------------------------------------------------------| 
|-7-7-7-7-7-7-8-8-7-7-7-7-8-8-8-8-------------------------| 
|-7-7-7-7-7-7-7-7-7-7-7-7-7-7-7-7-4-4-6-4-2-2-2-2-0-0-0-0-| 
|-7-7-7-7-7-7-8-8-7-7-7-7-8-8-8-8-4-4-4-4-4-4-4-4-2-2-2-2-| 
|-5-5-5-5-5-5-----5-5-5-5---------2-2-2-2-4-4-4-4-2-2-2-2-| 
|-------------6-6---------6-6-6-6---------2-2-2-2-0-0-0-0-| 

|------------------------------------------------------------------| 
|------------------------------------------------------------------| 
|-444444444444-66666666666-11/7/4-9/6/7--7/9-7/9/11--11/12-11-9-11-| 
|-xxxxxxxxxxxx-xxxxxxxxxxx--x-x-x-x-x-x--x-x-x-x-x----x-x-----x-x--| 
|-222222222222-44444444444--9/5/2-7/4/5--5/7-5/7/9----9/10-9--7-9--| 
|------------------------------------------------------------------| 

|-----------------------------| 
|-----------------------------| 
|-11/14-14-14-12-11--11-12-14-| 
|--x--x--x--x--x-x---x--x--x--| 
|--9/12-12-12-10-9---9--10-12-| 
|-----------------------------| 


Guitar 2: 

|---------------------------------------------------------| 
|-7-7-7-7-7-7-8-8-7-7-7-7-8-8-8-8-------------------------| 
|-7-7-7-7-7-7-7-7-7-7-7-7-7-7-7-7-4-4-6-4-2-2-2-2-0-0-0-0-| 
|-7-7-7-7-7-7-8-8-7-7-7-7-8-8-8-8-4-4-4-4-4-4-4-4-2-2-2-2-| 
|-5-5-5-5-5-5-----5-5-5-5---------2-2-2-2-4-4-4-4-2-2-2-2-| 
|-------------6-6---------6-6-6-6---------2-2-2-2-0-0-0-0-| 

|-----------------------------------------------3--3-----------| 
|---------------------------77-77---------------3--3-----------| 
|-444444444444-222222222222-77-77-4--4----0-0---0--0--6--6-6-6-| 
|-xxxxxxxxxxxx-xxxxxxxxxxxx-77-77-5--5----2-2---0--0--7--7-7-7-| 
|-222222222222-000000000000-55-55-5--5----2-2---2--2--5--5-5-5-| 
|---------------------------------3--3--2-0-0-2-3--3-----------| 


Outro,same as the Intro: 

Guitar 1: 

|-------------------------------------------------| 
|-------------------------------------------------| 
|-------7-----------7-----------7-----------7-----| 
|-----9---9-------9---9-------9---9-------9---9---| 
|---9-------9---9-------9---9-------9---9-------9-| 
|-7-----------7-----------7-----------7-----------| 

|--------------------------------------------------| 
|--------------------------------------------------| 
|-------7-----------7-----------7-----------7------| 
|-----8---8-------8---8-------5---5-------5---5----| 
|---5-------5---5-------5---5-------5---5-------5--| 
|-6-----------6-----------6-----------6------------| 

|--------------------------------------------------| 
|--------------------------------------------------| 
|-------4-----------4-----------4-----------4------| 
|-----4---4-------4---4-------4---4-------4---4----| 
|---2-------2---2-------2---2-------2---2-------2--| 
|-3-----------3-----------3-----------3------------| 

|---------------------------------------------------| 
|-----------------------------------2~--2~--2~--2~--| 
|-------4---------------4--------3------------------| 
|-----4---4----------4-----4-----4------------------| 
|---4-------4-----4-----------4--4------------------| 
|-2------------2-----------------2------------------| 


Guitar 2: 

|-------------------------------------------------------------------------| 
|-------------------------------------------------------------------------| 
|-------14----14----------14----14----------14----14----------14----14----| 
|----12----12----12----12----12----12----12----12----12----12----12----12-| 
|-14----------------14----------------14----------------14----------------| 
|-------------------------------------------------------------------------| 

|-------------------------------------------------------------------------| 
|-------------------------------------------------------------------------| 
|-------14----14----------14----14----------12----12----------11----11----| 
|----12----12----12----12----12----12----12----12----12----12----12----12-| 
|-13----------------13----------------13----------------13----------------| 
|-------------------------------------------------------------------------| 

|--------------------------------------------------------------| 
|--------------------------------------------------------------| 
|------11---11--------11---11--------11---11--------11---11----| 
|----9----9----9----9----9----9----9----9----9----9----9----9--| 
|-10-------------10-------------10-------------10--------------| 
|--------------------------------------------------------------| 

|----------------------------------| 
|----------------------------------| 
|-----9---9---------9-----9-----6~-| 
|---8---8---8----8-----8-----8--8~-| 
|-9-----------9-----------------9~-| 
|----------------------------------|  

roll up this ad to continue

share this page

See Also: