E-Chords
Hail The Sun

Cosmic Narcissism(Tabs)

Hail The Sun

Key: E
Intro 
Guitar 1: 
     T      T      T          T      T      T 
E||------------------------|------------------------| 
B||------------------------|------------------------| 
G||------------------------|------------------------| 
D||------------------------|------------------------| 
A||---------10-5h8-12-5h8--|---------10-5h8-12-5h8--| 
E||--10-5h6----------------|--10-5h6----------------| 


     T      T      T          T      T      T 
E||------------------------|------------------------| 
B||------------------------|------------------------| 
G||------------------------|------------------------| 
D||------------------------|----------------12-5h7--| x6 
A||---------10-5h8-12-5h8--|---------10-5h8---------| 
E||--10-5h6----------------|--10-5h6----------------| 


     T 
E||-------| 
B||-------| 
G||-------| 
D||-------| 
A||-------| 
E||--10~--| 


Guitar 2: 
     T      T      T           T      T      T 
E||-------------------------|-------------------------| 
B||-------------------------|-------------------------| 
G||-------------------------|-------------------------| 
D||---------10-7h8-15-7h10--|---------10-7h8-15-7h10--| 
A||--12-5h8-----------------|--12-5h8-----------------| 
E||-------------------------|-------------------------| 



     T      T      T           T      T      T 
E||-------------------------|-------------------------| 
B||-------------------------|-------------------------| 
G||-------------------------|----------------14-7h10--| 
D||---------10-7h8-15-7h10--|---------10-7h8----------| x5 
A||--12-5h8-----------------|--12-5h8-----------------| 
E||-------------------------|-------------------------| 


     T 
E||-------| 
B||-------| 
G||-------| 
D||-------| 
A||--12~--| 
E||-------| 



Interlude 
Guitar 1/2: 
E||------------------|------------------| 
B||--5~--(5~)--(5~)--|------------------| 
G||--7~--(7~)--(7~)--|--7~--(7~)--(7~)--| 
D||--7~--(7~)--(7~)--|--7~--(7~)--(7~)--| x4 
A||--5~--(5~)--(5~)--|--5~--(5~)--(5~)--| 
E||------------------|--6~--(6~)--(6~)--| 


E||---------------------------|---------------------------| 
B||---------------------------|---------------------------| 
G||---------------------------|---------------------------| 
D||---------------------------|---------------------------| 
A||--5h8p5-5h8p5-5h8p5-5h8p5--|--5h8p5-5h8p5-5h8p5-5h8p5--| 
E||---------------------------|---------------------------| 
     .     .     .     .         .     .     .     . 


E||---------------------------|---------------------------| 
B||---------------------------|---------------------------| 
G||---------------------------|---------------------------| 
D||---------------------------|---------------------------| 
A||--5h8p5-5h8p5-5h8p5-5h8p5--|--5h8p5-5h8p5-5h8p5-5h8p5--| 
E||---------------------------|---------------------------| 
     .     .     .     .         .     .     .     . 


E||---------------------------|---------------------------| 
B||---------------------------|---------------------------| 
G||---------------------------|---------------------------| 
D||---------------------------|---------------------------| 
A||--5h8p5-5h8p5-5h8p5-5h8p5--|--5h8p5-5h8p5-5h8p5-5h8p5--| 
E||---------------------------|---------------------------| 
     .     .     .     .         .     . 


E||---------------------------|---------------------------| 
B||---------------------------|---------------------------| 
G||---------------------------|---------------------------| 
D||---------------------------|---------------------------| 
A||--5h8p5-5h8p5-5h8p5-5h8p5--|--5h8p5-5h8p5-5h8p5-5h8p5--| 
E||---------------------------|---------------------------| 



Pre-Verse 
Guitar 1/2: 
E||-------------------------------------| 
B||-------------------------------------| 
G||-------------------------------------| 
D||--7-7-7---7-7---7-7---7-7~--7-7---7--| 
A||--5-5-5---5-5---5-5---5-5~--5-5---5--| 
E||--5-5-5---5-5---5-5---5-5~--5-5---5--| 


E||-----------------------------| 
B||-----------------------------| 
G||-----------------------------| 
D||--7-7-7---7---7-7-7---7-7-7--| 
A||--5-5-5---5---5-5-5---5-5-5--| 
E||--5-5-5---5---5-5-5---5-5-5--| 


E||----------------------| 
B||----------------------| 
G||----------------------| 
D||--7-7-7---7-7-7~--7~--| 
A||--5-5-5---5-5-5~--5~--| 
E||--5-5-5---5-5-5~--5~--| 


Guitar 1: 
E||----------------------------------------| 
B||----------------------------------------| 
G||----------------------------------------| 
D||--7-7-----------------------------------| 
A||--5-5-----------------4-7-5\------------| 
E||--5-5-------------5-6-------------------| 


Guitar 2: 
E||------------------------------------10--| 
B||----------------------------------------| 
G||-----------------------------7h9h10-----| 
D||----------------------------------------| 
A||------5-6-5-----------------------------| 
E||--5-8-------8-5-8-----------------------| 



Verse 
Guitar 1: 
E||-------------------------------------------------| 
B||-------------------------------------------------| 
G||-------------------------------------------------| 
D||--7-7---7-7---7-7---7-7---5-5---5-5---5-5---5-5--| 
A||--5-5---5-5---5-5---5-5---7-7---7-7---7-7---7-7--| 
E||-------------------------------------------------| 


E||-------------------------------------------------| 
B||-------------------------------------------------| 
G||-------------------------------------------------| 
D||--7-7---7-7---7-7---7-7---7-7---7-7---7-7---7-7--| x2 
A||--8-8---8-8---8-8---8-8---8-8---8-8---8-8---8-8--| 
E||-------------------------------------------------| 


Guitar 1 (Dub): 
E||-------------------------------| 
B||-------------------------------| 
G||-------------------------------| 
D||--7------------9------------8--| x2 
A||-------------------------------| 
E||-------------------------------| 


Guitar 2: 
E||-----------------------------------------------------------------| 
B||-----------------------------------------------------------------| 
G||--10-10---10-10---10-10---10-10---9--9----9--9----9--9----9--9---| 
D||--12-12---12-12---12-12---12-12---12-12---12-12---12-12---12-12--| 
A||-----------------------------------------------------------------| 
E||-----------------------------------------------------------------| 


E||-----------------------------------------------------------------| 
B||-----------------------------------------------------------------| 
G||-----------------------------------------------------------------| 
D||--12-12---12-12---12-12---12-12---12-12---12-12---12-12---12-12--| x2 
A||--13-13---13-13---13-13---13-13---13-13---13-13---12-12---12-12--| 
E||-----------------------------------------------------------------| 



Solo 
Guitar 1: 
E||--------------------------------------------------| 
B||-----------10---------------------11--------------| 
G||---------7----7-----------------9----9------------| 
D||-------7--------7-------------8--------8----11-8--| 
A||-----8------------8-10-8-7-10------------10-------| 
E||--10----------------------------------------------| 


E||--------------------------------------------13-----------------| 
B||--------------14-------------------------15----15--------------| 
G||-----------12----12-------------------14----------14-----------| 
D||--------14----------14----------12-15----------------15-12-15--| 
A||--12-16----------------16-12-16--------------------------------| 
E||---------------------------------------------------------------| 


E||--------------17----------------------------18-----------------| 
B||-----------15----15----------------------17----17--------------| 
G||--------14----------14----------------15----------15----18-15--| 
D||-----15----------------15-17-15-14-17----------------17--------| 
A||--17-----------------------------------------------------------| 
E||---------------------------------------------------------------| 


E||--------------21----------------------------| 
B||--------17-20----20-17----------------------| 
G||-----18----------------18----18-19-19-19~\--| 
D||--19----------------------19----------------| 
A||--------------------------------------------| 
E||--------------------------------------------| 


Guitar 1 (Dub): 
E||-----------------------------------------------------------------| 
B||-----------------------------------------------------------------| 
G||-----------------------------------------------------------------| 
D||--7-7---7-7---5-5---5-5---5-5---8--8----8--8----7-7---7-7---7-7--| 
A||--5-5---5-5---7-7---7-7---7-7---10-10---10-10---8-8---8-8---8-8--| 
E||-----------------------------------------------------------------| 


E||-------------------------------------------------------------| 
B||-------------------------------------------------------------| 
G||-------------------------------------------------------------| 
D||--7-7---7-7---8--8----8--8----8--8----5-5---5-5---7-7---7-7--| 
A||--5-5---5-5---10-10---10-10---10-10---7-7---7-7---8-8---8-8--| 
E||-------------------------------------------------------------| 


Guitar 2: 
E||---------------------------------------------------------------------------------| 
B||---------------------------------------------------------------------------------| 
G||--10-10---10-10---9--9----9--9----9--9-------------------------------------------| 
D||--12-12---12-12---12-12---12-12---12-12---11-11---11-11---12-12---12-12---12-12--| 
A||------------------------------------------12-12---12-12---12-12---12-12---12-12--| 
E||---------------------------------------------------------------------------------| 


E||-------------------------------------------------------------------------| 
B||-------------------------------------------------------------------------| 
G||--10-10---10-10---9--9----9--9----9--9-----------------------------------| 
D||--12-12---12-12---12-12---12-12---12-12---11-11---11-11---12-12---12-12--| 
A||------------------------------------------12-12---12-12---12-12---12-12--| 
E||-------------------------------------------------------------------------| 



Bridge 
Guitar 1: 
E||--------------------------------------------------------| 
B||--------------------------------------------------------| 
G||--------------------------------------------------------| 
D||--7--7--7-7----5--5--5-5----8---8---8--8-----7--7--7-7--| 
A||--5--5--5-5----7--7--7-7----10--10--10-10----8--8--8-8--| 
E||--------------------------------------------------------| 


E||-------------------------------------------------------12------------| 
B||----------------------------------------------------14---------------| 
G||-------------------------------------------------14------------------| 
D||--7--7--7-7-----------8---8---8--8-----5--5--5-5----------7--7--7-7--| 
A||--5--5--5-5-----------10--10--10-10----7--7--7-7----------8--8--8-8--| 
E||------------0h3/5h8--------------------------------------------------| 


Guitar 2: 
E||--------------------------------------------------------------------| 
B||--------------------------------------------------------------------| 
G||--10--10--10-10----9---9---9--9-------------------------------------| 
D||--12--12--12-12----12--12--12-12----11--11--11-11----12--12--12-12--| 
A||------------------------------------12--12--12-12----12--12--12-12--| 
E||--------------------------------------------------------------------| 


E||-------------------------------------------------------------------------------| 
B||-------------------------------------------------------------------------------| 
G||--10--10--10-10----9---9---9--9--8h9p8-----------------------------------------| 
D||--12--12--12-12----12--12--12-12-------12-8/11-11--11--11-11----12--12--12-12--| 
A||-----------------------------------------------12--12--12-12----12--12--12-12--| 
E||-------------------------------------------------------------------------------| 



Interlude 2 
Guitar 1: 
E||--------8-------8-------10p8------------0-------0~--| 
B||------6-----6-------6--------6--------6-----6-------| 
G||----7---------7-------7--------7----5---------5-----| 
D||--7-------------------------------7-----------------| 
A||----------------------------------------------------| 
E||----------------------------------------------------| 


E||------------------------------------------0-----0~--| 
B||--------5-------8p5-----8p5-----5-------0---0-------| 
G||------7-----7-------5-------5---------5-------5-----| 
D||----7---------7-------7-------7-----6---------------| x2 
A||--8-------------------------------7-----------------| 
E||----------------------------------------------------| 


E||----------0-----0~--| 
B||--------0---0-------| 
G||------5-------5-----| 
D||----6---------------| 
A||--7-----------------| 
E||--------------------| 


Guitar 2: 
E||---------------------------------------------| 
B||--10~--------10~\5~--------------------5~----| 
G||-------------------------------7~------7b9~--| 
D||---------------------------------------------| 
A||---------------------------------------------| 
E||---------------------------------------------| 


E||-------------12~\7~--------------------------| 
B||--10~--------10~\5~--------------------5~----| 
G||-------------------------------7~------7b9~--| 
D||---------------------------------------------| 
A||---------------------------------------------| 
E||---------------------------------------------| 



Bridge 2 
Guitar 1/2: 
E||--------------------------------------| 
B||--------------------------------------| 
G||--------------------------------------| 
D||-----8-----7--------12-----10---------| x4 
A||--5-----5-----5--8------8-----8-10-8--| 
E||--------------------------------------| 


Guitar 1: 
E||--------------------------------------| 
B||--------------------------------------| 
G||--------------------------------------| 
D||-----8-----7--------12-----10---------| x4 
A||--5-----5-----5--8------8-----8-10-8--| 
E||--------------------------------------| 


Guitar 2: 
E||---------------------------------------| 
B||---------------------------------------| 
G||-----10-----9--------12-----10---------| 
D||--7------7-----7--8------8-----8-10-8--| x4 
A||---------------------------------------| 
E||---------------------------------------| 


Guitar 1/2: 
E||--------------------| 
B||--------------------| 
G||--------------------| 
D||--7----7----7----7--| 
A||--5----5----5----5--| 
E||--5----5----5----5--| 


Guitar 1: 
E||---------------| 
B||---------------| 
G||---------------| 
D||--7---7---7-8--| 
A||--5---5---5-5--| 
E||--5---5---5-6--| 



verse 2 
Guitar 1/2: 
E||-------------------|-------------------| 
B||-------------------|-------------------| 
G||-------------------|-------------------| 
D||--7---7---7-8---8--|--7---7---7-8---8--| 
A||--4---4---4-5---5--|--5---5---5-5---5--| 
E||--5---5---5-6---6--|--5---5---5-6---6--| 


E||---------------|---------------| 
B||---------------|---------------| 
G||---------------|---------------| 
D||--7---7---7-8--|--7---7---7-8--| x3 
A||--4---4---4-5--|--5---5---5-5--| 
E||--5---5---5-6--|--5---5---5-6--| 


E||-------------------|-------------------| 
B||-------------------|-------------------| 
G||-------------------|-------------------| 
D||--7---7---7-8---8--|--7---7---7-8---8--| 
A||--4---4---4-5---5--|--5---5---5-5---5--| 
E||--5---5---5-6---6--|--5---5---5-6---6--| 


E||---------------| 
B||---------------| 
G||---------------| 
D||--7---7---7-8--| 
A||--4---4---4-5--| 
E||--5---5---5-6--| 


Guitar 1 (Dub): 
E||--------------------------------------------| 
B||------6-----6-5~------------6-----6-5-6-5~--| 
G||--------6-7-------------------6-7-----------| 
D||--7-8-------------------7-8-----------------| x2 
A||--------------------------------------------| 
E||--------------------------------------------| 


Guitar 2 (Dub): 
E||--------13-------13-12~--------------13-------13-12-13-12~--| 
B||-----------14-15------------------------14-15---------------| 
G||--14-15------------------------14-15------------------------| 
D||------------------------------------------------------------| x2 
A||------------------------------------------------------------| 
E||------------------------------------------------------------| 



Breakdown 
Guitar 1/2: 
E||---------------------------------------| 
B||---------------------------------------| 
G||---------------------------------------| 
D||--7-7-7-7-3---7---6---6-6-6-3---6---5--| x6 
A||--5-5-5-5-3---7---6---6-6-6-3---6---5--| 
E||--5-5-5-5-1---5---4---4-4-4-1---4---3--| 


E||--------------------| 
B||--------------------| 
G||--------------------| 
D||--7----7----7----7--| 
A||--5----5----5----5--| 
E||--5----5----5----5--| 



Interlude 
Guitar 1/2: 
E||------------------|------------------| 
B||--5~--(5~)--(5~)--|------------------| 
G||--7~--(7~)--(7~)--|--7~--(7~)--(7~)--| 
D||--7~--(7~)--(7~)--|--7~--(7~)--(7~)--| 
A||--5~--(5~)--(5~)--|--5~--(5~)--(5~)--| 
E||------------------|--6~--(6~)--(6~)--| 


E||------------------|------------------| 
B||--5~--(5~)--(5~)--|------------------| 
G||--7~--(7~)--(7~)--|--7~--(7~)--(7~)--| 
D||--7~--(7~)--(7~)--|--7~--(7~)--(7~)--| 
A||--5~--(5~)--(5~)--|--5~--(5~)--(5~)--| 
E||------------------|--6~--(6~)--(6~)--| 


E||------------------|------------------| 
B||--6~--(6~)--(6~)--|------------------| 
G||--7~--(7~)--(7~)--|--7~--(7~)--(7~)--| 
D||--7~--(7~)--(7~)--|--7~--(7~)--(7~)--| 
A||--5~--(5~)--(5~)--|--5~--(5~)--(5~)--| 
E||------------------|--6~--(6~)--(6~)--| 


E||------------------|------------------| 
B||--5~--(5~)--(5~)--|------------------| 
G||--7~--(7~)--(7~)--|--7~--(7~)--(7~)--| 
D||--7~--(7~)--(7~)--|--7~--(7~)--(7~)--| 
A||--5~--(5~)--(5~)--|--5~--(5~)--(5~)--| 
E||------------------|--6~--(6~)--(6~)--| 



Outro 
Guitar 1: 
     T      T      T          T      T      T 
E||------------------------|------------------------| 
B||------------------------|------------------------| 
G||------------------------|------------------------| 
D||------------------------|------------------------| 
A||---------10-5h8-12-5h8--|---------10-5h8-12-5h8--| 
E||--10-5h6----------------|--10-5h6----------------| 


     T      T      T          T      T      T 
E||------------------------|------------------------| 
B||------------------------|------------------------| 
G||------------------------|------------------------| 
D||------------------------|----------------12-5h7--| x4 
A||---------10-5h8-12-5h8--|---------10-5h8---------| 
E||--10-5h6----------------|--10-5h6----------------| 


Guitar 2: 
     T      T      T           T      T      T 
E||-------------------------|-------------------------| 
B||-------------------------|-------------------------| 
G||-------------------------|-------------------------| 
D||---------10-7h8-15-7h10--|---------10-7h8-15-7h10--| 
A||--12-5h8-----------------|--12-5h8-----------------| 
E||-------------------------|-------------------------| 


     T      T      T           T      T      T 
E||-------------------------|-------------------------| 
B||-------------------------|-------------------------| 
G||-------------------------|----------------14-7h10--| 
D||---------10-7h8-15-7h10--|---------10-7h8----------| x2 
A||--12-5h8-----------------|--12-5h8-----------------| 
E||-------------------------|-------------------------| 


     T      T      T           T      T      T 
E||-------------------------|-------------------------| 
B||-------------------------|-------------------------| 
G||-------------------------|----------------14-7h10--| 
D||---------10-7h8-15-7h10--|---------10-7h8----------| x2 
A||--12-5h8-----------------|--12-5h8-----------------| 
E||-------------------------|-------------------------| 




Tablature Legend 
---------------- 
h   hammer-on 
p   pull-off 
b   bend 
pb  pre-bend 
r   release bend 
~   hold / vibrato 
.   palm mute 
/   slide up 
\   slide down 
*   pinch harmonic 
'   natural harmonic 
x   mute note 
T   tap 

roll up this ad to continue

share this page

See Also: