E-Chords
Gs Megaphone

Prodigal Dad(Tabs)

Gs Megaphone

Key: Eb
Verse Part A 

Eb|----------------------4--------------2------------------------| 
Bb|-------2----------------5----------2---2------------2---0-----| 
Gb|-----2---2---2------6-----6--------------2--------2---2---2---| 
Db|---2-------2------6---------6----4---------4----2-------------| 
Ab|-0--------------4-----------------------------0---------------| 
Eb|-------------------------------2------------------------------| 

Eb|---------------------------------| 
Bb|-------7--------------6----------| 
Gb|-----7---7----------7---7--------| 
Db|---7-------7------7-------7------| 
Ab|-5-----------5--5-----------5----| 
Eb|---------------------------------| 


Verse Part B 

Eb|----------------------4--------------2-----------------------| 
Bb|-------2----------------5----------2---2------------2--------| 
Gb|-----2---2---2------6-----6--------------2--------3---3---3--| 
Db|---2-------2------6---------6----4---------4----4-------4----| 
Ab|-0--------------4--------------------------------------------| 
Eb|-------------------------------2--------------2--------------| 

Eb|-------2-------------2--------------2------------2---| 
Bb|---------3-------------3----------2---2--------2-----| 
Gb|-----4-----4-------4-----4------4-------2----4-------| 
Db|---4---------4---4---------4-------------------------| 
Ab|-2-------------0-------------------------------------| 
Eb|------------------------------4------------3---------| 


Chorus 

(A  C#  D  F) (x2) 


Verse Part B 

Chorus 


Solo 

Eb|--------------------------------------------------------------------| 
Bb|-10~~-9h10p9h10p\\6--10-9-12\\10?13//17?-10~~-9h10p9h10p9\\6--10--9-| 
Gb|--------------------------------------------------------------------| 
Db|--------------------------------------------------------------------| 
Ab|--------------------------------------------------------------------| 
Eb|--------------------------------------------------------------------| 

Eb|--------------------------------------------------------------------| 
Bb|-12\\10---5//6?10//12//13-------------------------------------------| 
Gb|--------7-----------------------------------------------------------| 
Db|--------------------------------------------------------------------| 
Ab|--------------------------------------------------------------------| 
Eb|--------------------------------------------------------------------| 


Verse Part C 

Eb|---------------------------------------------------------2----------| 
Bb|-------7--------------6----------2-------2-------------2---------3--| 
Gb|-----7---7----------7---7----------2-------2---------2---------4----| 
Db|---7-------7------7-------7----------2-------2-----4---------4------| 
Ab|-5-----------5--5-----------5--0---------------------------2--------| 
Eb|---------------------------------------4--------2-------------------| 


Eb|-2--------------0-----------------------0------0--------1--------0--| 
Bb|---3----------3---3---3--------2--------0----0--------3---3------2--| 
Gb|-----4------2-------2--------2---2------1--1--------2-------2----2--| 
Db|-------4--0----------------2-------2----2---------0-----------0--2--| 
Ab|-------------------------0-----------0--2------------------------0--| 
Eb|----------------------------------------0---------------------------| 

Chords: 
A:577xxx 
C#:x466xx 
D:x577xxx 
F:x81010xx 



************************************ 

| h  Hammer-on 
| p  Pull-off 
| b  Bend 
| /  Slide up 
| \  Slide down 
| ~  Vibrato 

************************************ 

roll up this ad to continue

share this page

See Also: