E-Chords
Gs Megaphone

Beautiful World(Tabs)

Gs Megaphone

Intro 
|--------------------------------|--------------------------------| 
|--------------------------------|--------------------------------| 
|7-7-7-6-7-7-7-6-7-7-7-6-7-7-7-6-|7-7-7-6-7-7-7-6-7-7-7-6-7-------| 
|7-7-7-7-7-7-7-7-7-7-7-7-7-7-7-7-|5-5-5-5-5-5-5-5-5-5-5-5-5-------| 
|5-5-5-5-5-5-5-5-5-5-5-5-5-5-5-5-|5-5-5-5-5-5-5-5-5-5-5-5-5-------| 
|--------------------------------|5-5-5-5-5-5-5-5-5-5-5-5-5-------| 

Verse  Lead       
|----0-------0-------0-------0---|----0-------0-------0-------0---| 
|------3-------3-------3-------3-|------3-------3-------3-------3-| 
|--2-------2-------2-------2-----|--2-------2-------2-------2-----| 
|0-------0-------0-------0-------|5-------5-------5-------5-------| 
|--------------------------------|--------------------------------| 
|--------------------------------|--------------------------------| 
         
|----0-------0-------0-------0---|----0-------0-------0-------0---| 
|------7-------7-------7-------7-|--------------------------------| 
|--7-------7-------7-------7-----|--7---7---7---7---7---7---7---7-| 
|9-------9-------9-------9-------|8-------8-------8-------8-------| 
|--------------------------------|--------------------------------| 
|--------------------------------|--------------------------------| 

Verse Rhythm 
|--------------------------------|--------------------------------| 
|--------------------------------|--------------------------------| 
|--------------------------------|--------------------------------| 
|7-7-7-7-7-7-7-7-5-5-5-5-5-5-5-5-|9-9-9-9-9-9-9-9-8-8-8-8-8-8-8-8-| 
|5-5-5-5-5-5-5-5-5-5-5-5-5-5-5-5-|9-9-9-9-9-9-9-9-5-5-5-5-5-5-5-5-| 
|0-0-0-0-0-0-0-0-5-5-5-5-5-5-5-5-|9-9-9-9-9-9-9-9-5-5-5-5-5-5-5-5-| 

|--------------------------------|--------------------------------| 
|--------------------------------|--------------------------------| 
|--------------------------------|--------------------------------| 
|7-7-7-7-7-7-7-7-5-5-5-5-5-5-5-5-|9-9-9-9-9-9-9-9-8-8-8-8-8-8-8-8-| 
|5-5-5-5-5-5-5-5-5-5-5-5-5-5-5-5-|9-9-9-9-9-9-9-9-5-5-5-5-8-8-8-8-| 
|0-0-0-0-0-0-0-0-5-5-5-5-5-5-5-5-|9-9-9-9-9-9-9-9-5-5-5-5-8-8-8-8-| 

Chorus 
|--------------------------------|--------------------------------| 
|7---------------7---------------|8-------------------------------| 
|7---------------6---------------|7---------------7---------------| 
|0---------------4---------------|5---------------8---------------| 
|0---------------4---------------|5---------------5---------------| 
|0---------------4---------------|5---------------5---------------| 

Chorus 2 End/Into Solo 

|--------------------------------|--------------------------------| 
|7-------8-------10------11------|14------------------------------| 
|--------------------------------|--------------------------------| 
|4-------5-------7-------8-------|11------------------------------| 
|--------------------------------|--------------------------------| 
|--------------------------------|--------------------------------| 

Solo with Chorus Rhythm 
|--------------------------------|--------------------------------| 
|7-------7---5-7-----7---5-7-8---|7-------7---5-7-----7---5-7-10--| 
|--------------------------------|--------------------------------| 
|--------------------------------|--------------------------------| 
|--------------------------------|--------------------------------| 
|--------------------------------|--------------------------------| 
         
|--------------------------------|--------------------------------| 
|10--------------12----14--12--11|------------9---11--------------| 
|--------------------------------|--------------------------------| 
|--------------------------------|--------------------------------| 
|--------------------------------|--------------------------------| 
|--------------------------------|--------------------------------| 
        
|--------------------------------|--------------------------------| 
|5-------------------------------|5-------7---7-------------------| 
|--------7-----------------------|--------------------------------| 
|--------------------------------|--------------------------------| 
|--------------------------------|--------------------------------| 
|--------------------------------|--------------------------------| 
         
|--------------------------------|--------------------------------| 
|--------------------------------|--------------------------------| 
|------7-----9---------7-----9---|-7------------------------------| 
|9---------------7---------------|--------------------------------| 
|--------------------------------|--------------------------------| 
|--------------------------------|--------------------------------|  

roll up this ad to continue

share this page

See Also: