E-Chords
Graveyard

Rss(Tabs)

Graveyard

roll up this ad to continue

Key: D
Afinação: D G C F A D (1 tom abaixo) 

Riff principal: 

|-----------------------------------------| 
|-----5-----------------------------------| 
|-----5---7h5---------7b9-7-7b9r7h5-------| 
|--7-----------5--7------------------5----| 
|-----------------------------------------| 
|-----------------------------------------| 


|-----------------------------------------| 
|-----5-----------------------------------| 
|-----5---7h5-----7b9--7--5-7h5-----------| 
|--7-----------7-----------------5--------| 
|-----------------------------------------| 
|-----------------------------------------| 


Pré-refrão: 

|---------------------------------| 
|---------------------------------| 
|---------------------------------|      A nota entre parênteses é repetida várias vezes. 
|--10----------9------------------| 
|---8----10----7----10------(12)--| 
|---------8----------8------------| (x2) 

'That's so far to where they run...' 


Refrão: 

|-------------------------||--5-----| 
|-------------------------||--5-----| 
|-------------------------||--5-----| 
|--10----------9----------||--7-----| 
|---8----10----7----10----||--7-----| 
|---------8----------8----||--5-----| (x2) 

'Yeah, your time to die...' 


|----------8--------5---------| 
|--10------8--------5---------| 
|--10------9--------5---------| 
|--10-----10--------7---------| 
|---8-----10--------7---------| 
|----------8--------5---------| (x2) 

'And if you judge me and point your finger' 


Riff 1:56: 


|----------------||----------| 
|----------------||----------| 
|----------------||----5-----| 
|--7--7-7h5------||--5-------| 
|-----------7----||----------| 
|----------------||----------| 
(3x) 

|----------------||----------------------------| 
|----------------||----------------------------| 
|----------------||--7b9r7h5--7----------------| 
|--7--7-7h5------||--------------7---7-7h5-----| 
|-----------7----||------------------------7---| 
|----------------||----------------------------| 
(2x) 


Variação do Riff anterior (3:32): 

|-----------------||----8-----| 
|--10-10-10h8-----||--8-------| 
|-------------9---||----------| 
|-----------------||----------| 
|-----------------||----------| 
|-----------------||----------| 
(3x) 

|-----------------||--10b12r10-8-10-----------------| 
|--10-10-10h8-----||----------------10--10-10h8-----| 
|-------------9---||----------------------------9---| 
|-----------------||--------------------------------| 
|-----------------||--------------------------------| 
|-----------------||--------------------------------| 
(2x) 
share this page

See Also: