E-Chords
Graveyard

Far Too Close(Tabs)

Graveyard

roll up this ad to continue

Key: D
Intro 

Solo guitar 
d|------------|----------------------------------------------------------------| 
A|---------8--|----------------------11b12~------------------------------------| 
F|-----7------|-9-------------------------------12---9-------------------------| 
C|-7/9---9----|----------------------------------------------------------------| 
G|------------|----------------------------------------------------------------| 
D|------------|----------------------------------------------------------------| 

d|-10--------------------------------------------------------------------------| 
A|----12-8h10p8-----10~--------------------10/12-----8---/10---b11---br10------| 
F|--------------9--------------------------------------------------------------| 
C|-----------------------------------------------------------------------------| 
G|-----------------------------------------------------------------------------| 
D|-----------------------------------------------------------------------------| 

d|-----------------| 
A|---------8-------| 
F|-----7-------9---| 
C|-7/9---9---------| 
G|-----------------| 
D|-----------------| 

Rhythm guitar 
d|----------------------------------------------------------------| 
A|----------------------------------------------------------------| 
F|----------------------------------------------------------------| 
C|-----------5-------5/7---5----------------5h7p5-------5/7---5---| 
G|-------------7-----7/9---7--------------5-------7-----7/9---7---| 
D|-0-----7-----------------------0-----7--------------------------| 

d|------------------------------------------------------0-------| 
A|------------------------0---------------------------------0---| 
F|-------5-7--9-5------------4---------5-7--9-5-------4---4---4-| 
C|-------7-9-10-7-----5----------------7-9-10-7-----5-----------| 
G|-0-----------------------------0------------------------------| 
D|--------------------------------------------------------------| 


verse 1 

d|----------------------------------------------------------------| 
A|----------------------------------------------------------------| 
F|----------------------------------------------------------------| 
C|-----------5-------5/7---5----------------5h7p5-------5/7---5---| 
G|-------------7-----7/9---7--------------5-------7-----7/9---7---| 
D|-0-----7-----------------------0-----7--------------------------| 

d|------------------------------------------------------0-------| 
A|------------------------0---------------------------------0---| 
F|-------5-7--9-5------------4---------5-7--9-5-------4---4---4-| 
C|-------7-9-10-7-----5----------------7-9-10-7-----5-----------| 
G|-0-----------------------------0------------------------------| 
D|--------------------------------------------------------------| 

d|----------------------------------------------------------------| 
A|----------------------------------------------------------------| 
F|----------------------------------------------------------------| 
C|-----------5-------5/7---5----------------5h7p5-------5/7---5---| 
G|-------------7-----7/9---7--------------5-------7-----7/9---7---| 
D|-0-----7-----------------------0-----7--------------------------| 


Chorus 

Solo guitar 
d|-8-----8b10-----7-----8b10------------10b12-----10--------------| 
A|-------------------------------10-------------------------------| 
F|----------------------------------------------------------------| 
C|----------------------------------------------------------------| 
G|----------------------------------------------------------------| 
D|----------------------------------------------------------------| 

d|-8-----8b10-----7-----8b10-----------------------8--------------| 
A|-------------------------------10-----8---10-------10-----------| 
F|----------------------------------------------------------------| 
C|----------------------------------------------------------------| 
G|----------------------------------------------------------------| 
D|----------------------------------------------------------------| 

Bb                 Dm                     Cm 
        And if you leave, where would you go? 
Eb                    Am 
        'Cause I will follow 
        Eb         Dm        Cm 
        Slowly I'm making my way 


verse 2 

d|--------------------------------------------------------| 
A|-------------------------------------7b8br7-------------| 
F|-------------5-----------------------7b8br7-5-----------| 
C|---------7---------7-5-----------7------------7-----7---| 
G|-0-----7---7-----------7-0-----7---7--------------7---3-| 
D|--------------------------------------------------------| 

d|--------------------------------------------------------| 
A|-------------------------------------7b8br7-------------| 
F|-------------5-----------------------7b8br7-5-----------| 
C|---------7---------7-5-----------7------------7-----7---| 
G|-0-----7---7-----------7-0-----7---7--------------7---3-| 
D|--------------------------------------------------------| 

d|------------------------------------------------------0-------| 
A|------------------------0---------------------------------0---| 
F|-------5-7--9-5------------4---------5-7--9-5-------4---4---4-| 
C|-------7-9-10-7-----5----------------7-9-10-7-----5-----------| 
G|-0-----------------------------0------------------------------| 
D|--------------------------------------------------------------| 

d|----------------------------------------------------------------| 
A|----------------------------------------------------------------| 
F|----------------------------------------------------------------| 
C|-----------5-------5/7---5----------------5h7p5-------5/7---5---| 
G|-------------7-----7/9---7--------------5-------7-----7/9---7---| 
D|-0-----7-----------------------0-----7--------------------------| 

d|------------------------------------------------------0-------| 
A|------------------------0---------------------------------0---| 
F|-------5-7--9-5------------4---------5-7--9-5-------4---4---4-| 
C|-------7-9-10-7-----5----------------7-9-10-7-----5-----------| 
G|-0-----------------------------0------------------------------| 
D|--------------------------------------------------------------| 

d|----------------------------------------------------------------| 
A|----------------------------------------------------------------| 
F|----------------------------------------------------------------| 
C|-----------5-------5/7---5----------------5h7p5-------5/7---5---| 
G|-------------7-----7/9---7--------------5-------7-----7/9---7---| 
D|-0-----7-----------------------0-----7--------------------------| 


Chorus 

Solo guitar 
d|-8-----8b10-----7-----8b10------------10b12-----10--------------| 
A|-------------------------------10-------------------------------| 
F|----------------------------------------------------------------| 
C|----------------------------------------------------------------| 
G|----------------------------------------------------------------| 
D|----------------------------------------------------------------| 

d|-8-----8b10-----7-----8b10-----------------------8--------------| 
A|-------------------------------10-----8---10-------10-----------| 
F|----------------------------------------------------------------| 
C|----------------------------------------------------------------| 
G|----------------------------------------------------------------| 
D|----------------------------------------------------------------| 

d|-8-----8b10-----7-----8b10------------10b12-----10--------------| 
A|-------------------------------10-------------------------------| 
F|----------------------------------------------------------------| 
C|----------------------------------------------------------------| 
G|----------------------------------------------------------------| 
D|----------------------------------------------------------------| 

d|-8-----8b10-----7-----8b10-----------------------8--------------| 
A|-------------------------------10-----8---10-------10-----------| 
F|----------------------------------------------------------------| 
C|----------------------------------------------------------------| 
G|----------------------------------------------------------------| 
D|----------------------------------------------------------------| 

Bb                 Dm                     Cm 
        And if you leave, where would you go? 
Eb                    Am 
        'Cause I will follow 
        Eb         Dm        Cm 
        Slowly I'm making my way 
Bb                 Dm                     Cm 
        And if you leave, where would you go? 
Eb                    Am 
        'Cause I will follow 
        Eb         Dm        Cm 
        Slowly I'm making my way 


verse 3 

d|--------------------------------------------------------| 
A|-------------------------------------7b8br7-------------| 
F|-------------5-----------------------7b8br7-5-----------| 
C|---------7---------7-5-----------7------------7-----7---| 
G|-0-----7---7-----------7-0-----7---7--------------7---3-| 
D|--------------------------------------------------------| 

d|--------------------------------------------------------| 
A|-------------------------------------7~-----------------| 
F|-------------5-----------------------7~-----------------| 
C|---------7---------7-5-----------7----------------------| 
G|-0-----7---7-----------7-0-----7---7--------------------| 
D|--------------------------------------------------------| 

d|------------------------------------------------------0-------| 
A|------------------------0---------------------------------0---| 
F|-------5-7--9-5------------4---------5-7--9-5-------4---4---4-| 
C|-------7-9-10-7-----5----------------7-9-10-7-----5-----------| 
G|-0-----------------------------0------------------------------| 
D|--------------------------------------------------------------| 

d|------------------------------------------------------------| 
A|------------------------0-----------------------------------| 
F|-------5-7--9-5------------4---------5-7--9-5---------------| 
C|-------7-9-10-7-----5----------------7-9-10-7---------------| 
G|-0-----------------------------0----------------7-5---------| 
D|----------------------------------------------------8-7-5-3-| 


Outro 1 

Solo guitar 
d|-8-----8b10-----7-----8b10------------10b12-----10--------------| 
A|-------------------------------10-------------------------------| 
F|----------------------------------------------------------------| 
C|----------------------------------------------------------------| 
G|----------------------------------------------------------------| 
D|----------------------------------------------------------------| 

d|-8-----8b10-----7-----8b10-----------------------8--------------| 
A|-------------------------------10-----8---10-------10-----------| 
F|----------------------------------------------------------------| 
C|----------------------------------------------------------------| 
G|----------------------------------------------------------------| 
D|----------------------------------------------------------------| 

Rhythm guitar 
d|---------------------------------------------------------------| 
A|---------------------------------------------------------------| 
F|---------------------------------------9-----------------------| 
C|-----------------------------------7---------------------------| 
G|-------------------------5-6-7-8-------------7-----7-5---------| 
D|-5-----0-----5-----5-7-8-------------------------------8-7-5-3-| 

d|---------------------------------------------------------------| 
A|---------------------------------------------------------------| 
F|---------------------------------------4-----------------------| 
C|-----------------------5h7p5-------6---------------------------| 
G|-------------------5h7-------5-7-------------8-----7-5---------| 
D|-5-----0-----5-----------------------------------------8-7-5-3-| 

d|---------------------------------------------------------------| 
A|---------------------------------------------------------------| 
F|---------------------------------------9-----------------------| 
C|-----------------------------------7---------------------------| 
G|-------------------------5-6-7-8-------------7-----7-5---------| 
D|-5-----0-----5-----5-7-8-------------------------------8-7-5-3-| 

d|---------------------------------------------------------------| 
A|---------------------------------------------------------------| 
F|---------------------------------------4-----------------------| 
C|-----------------------5h7p5-------6---------------------------| 
G|-------------------5h7-------5-7-------------8-----7-5---------| 
D|-5-----0-----5-----------------------------------------8-7-5-3-| 


Outro 2 

Solo guitar 
d|-------------------------------------------------------------8----| 
A|-----------------------------------------------------8---------10-| 
F|-----------5b--------8b9-----9br8----9-----------9-------9--------| 
C|-----5-5h7-----7------------------10-----10-----------------------| 
G|-5h7--------------------------------------------------------------| 
D|------------------------------------------------------------------| 

d|-b12---10---8-----7h8p7---------------------------------------| 
A|------------------------8--/10--------------------------------| 
F|--------------------------------------------------------------| 
C|-----------------------------------12---10---9---7------------| 
G|--------------------------------------------------------------| 
D|--------------------------------------------------------------| 

Rhythm guitar 
d|-------------------------------------------------------------| 
A|-------------------------------------------------------------| 
F|-------------------------------------------------------------| 
C|-------------------------------------------------------------| 
G|-------------------7-5-------------------------7-5-----------| 
D|-5-----0-----5---------8-7-5-3-5-----0-----5---------8-7-5-3-| 

d|-------------------------------------------------------------| 
A|-------------------------------------------5-----------------| 
F|-------------------------------------------5-----------------| 
C|-------------------------------------------7-----------------| 
G|-------------------7-5---------------------7-----------------| 
D|-5-----0-----5---------8-7-5-3-5-----0-----5-----------------| 


************************************ 

CHORD LEGEND 

    Bb  Dm  Cm  Eb  Am 
d|---3---7---5---8---7---| 
A|---5---8---6--10---7---| 
F|---5---9---7--10---7---| 
C|---5---9---7--10---9---| 
G|---3---7---5---8---9---| 
D|-------------------7---| 


| p   Pull-off 
| b   Bend 
| br  Bend release 
| /   Slide up 
| ~   Vibrato 

************************************ 
share this page

See Also: