E-Chords
Gormathon

Land Of The Lost(Tabs)

Gormathon

Key: B
Tuning: Drop B â?? B F# B E G# C# 

1) taping 
C#------------------------------| 
G#------------------------------| 
E ------------------------------| 
B ------------------------------| 
F#------------------------------| 
B --3--0--3--0--7--5--7--5------| 

2) riff 1 
-----------------------------------------------------------------| 
-----------------------------------------------------------------| 
-----------------------------------------------------------------| 
-----------------------------------------------------------------| 
-----------------------------------------------------1-1-1-1-1-1-| 
--2--0--2--0--2--0--2--0--2--3--2--0--2--0--2--0--2--------------| 

------------------------------------------------------------------| 
------------------------------------------------------------------| 
------------------------------------------------------------------| 
------------------------------------------------------------------| 
------------------------------------------------------------------| 
--2--0--2--0--2--0--2--0--2--3--2--0--2--0--2--0--2--8-7-5-3-2-0--| 

3)riff 2 
--------------------------------------------------------| 
--------------------------------------------------------| 
--------------------------------------------------------| 
-----2-----2-----2-----2-----2-----2--------------------| 
--0-----0-----3-----3-----0-----0--------3-----2--------| 
--------------------------------------3-----2-----------| 

4) Chorus 
--------------------------------------------------------| 
--------------------------------------------------------| 
--------------------------------------------------------| 
--3-3-3-3-3-3-3-3--7-7-7-7--2-2-2-2--0-0-0-0-0-0-0-0----| 
--5-5-5-5-5-5-5-5--8-8-8-8--3-3-3-3--1-1-1-1-1-1-1-1----| 
--------------------------------------------------------| 

---------------------------------------| 
---------------------------------------| 
---------------------------------------| 
--7-7-7-7--2-2-2-2--3-3-3-3-3-3-3-3----| 
--8-8-8-8--3-3-3-3--5-5-5-5-5-5-5-5----| 
---------------------------------------| 

5) solo part (chords) 
-----------------------------------------| 
-----------------------------------------| 
-----------------------------------------| 
--4------4--0-----0--4-----4--2-----0----| 
--4------4--0-----0--4-----4--2-----0----| 
--4------4--0-----0--4-----4--2-----0----| 

roll up this ad to continue

share this page

See Also: