E-Chords
Go West Young Man

High School(Tabs)

Go West Young Man

roll up this ad to continue

(Intro) x8 
E|----------9--------7--------7--------5-------------|    The intro is fairly 
B|------10--------7--------9--------7----------------|    straight forward. The 
G|--11---------9--------9--------6-------------------|    only hard part would 
D|---------------------------------------------------|    be the strum pattern. 
A|---------------------------------------------------|    If you listen to the 
E|---------------------------------------------------|    song you can get an 
                                                        idea. 


Verse 
E|----------9----------9--------7--------7--------5--------5-----| 
B|------10---------10--------9--------9--------7--------7--------| 
G|--11---------11---------9--------9--------6--------6-----------| 
D|---------------------------------------------------------------| 
A|---------------------------------------------------------------| 
E|---------------------------------------------------------------| 


Chorus (finger picked) 
E|----------9--------7--------7--------5------------| 
B|------10--------7--------9--------7---------------| 
G|--11---------9--------9--------6------------------| 
D|--------------------------------------------------| 
A|--------------------------------------------------| 
E|--------------------------------------------------| 
    Pull my chain like you did it in high school 
    all the same and we'll do it again 
    We'll come around here late like we did it in high school 


Back to verse 
E|----------9----------9--------7--------7--------5--------5-----| 
B|------10---------10--------9--------9--------7--------7--------| 
G|--11---------11---------9--------9--------6--------6-----------| 
D|---------------------------------------------------------------| 
A|---------------------------------------------------------------| 
E|---------------------------------------------------------------| 


Chorus(2) 
E|----------9--------7--------7--------5------------| 
B|------10--------7--------9--------7---------------| 
G|--11---------9--------9--------6------------------| 
D|--------------------------------------------------| 
A|--------------------------------------------------| 
E|--------------------------------------------------| 


Bridge Chords 
E|--------5--------5-----| Alternate until the Chorus 
B|-----6--------7--------| 
G|--7--------7-----------| 
D|-----------------------| 
A|-----------------------| 
E|-----------------------| 


Chorus (last) x8 
E|----------9--------7--------7--------5------------| 
B|------10--------7--------9--------7---------------| 
G|--11---------9--------9--------6------------------| 
D|--------------------------------------------------| 
A|--------------------------------------------------| 
E|--------------------------------------------------| 

Outrow 
E|--------5--------5-----| play until end 
B|-----6--------7--------| 
G|--7--------7-----------| 
D|-----------------------| 
A|-----------------------| 
E|-----------------------| 
share this page

See Also: