E-Chords
Gitaroo Man

The Legendary Theme(Tabs)

Gitaroo Man

------------------------------------------------------------------------------ 
PS2 - Gitaroo Man - The Legendary Theme  (Stage 6 and 9) 
 
This is my first attempt at tabbing guitar, so go easy on me. As soon as 
I heard this song in the game, I knew I had to learn to play it. This is 
one of my favorite pieces of guitar ever. 
I tabbed this from the acoustic version (stage 6), but is essentially the 
same as the soft rock version (stage 9, part 2), with some minor 
differences. 
If you have any improvements, please email me and let me know. 
  
Thanks to [email protected] for the new bits! 
  
ENJOY!! 
  
  
Standard Tuning 
*********************************************** 
 
Rhythm Guitar: 
 
|------------------------------ ---------------------------- 
|------0-------------0--------- -------0------------0------- 
|------1-------------1--------- -------2------------2------- 
|---2-----2-------2-----2------ -----2---2--------2---2----- 
|------------------------------ --0------------0------------ 
|0--------------0-------------- ---------------------------- 
 
--Section 1-- 
 |-------------------------4--------------------------------------------------- 
 |--------4-------------------4--5----------4----------------------5---------5 
  
 |1/2--4-----4/6---1/2--4-----------1/2--4-----4/6--6/7/6--4/1--2---4--2--1-- 
 |----------------------------------------------------------------------------- 
 |----------------------------------------------------------------------------- 
 |----------------------------------------------------------------------------- 
 
--Section 2-- 
 |--------------------------------------------------------- 
 |---------4-------------------------5--------------------5 
 |-1/2--4-----4--4/6--6/7/6--4/1--2-----4--2--1--2--------- 
 |--------------------------------------------------------- 
 |--------------------------------------------------------- 
 |--------------------------------------------------------- 
 
Repeat Sect 1 & 2 then continue 
--Section 3-- 
 |2--0--4-----------4--4/5--4--2--0--4-----------4--4/5--4--2--0-- 
 |---------5--7--5----------------------5--7--5------------------- 
 |---------------------------------------------------------------- 
 |---------------------------------------------------------------- 
 |---------------------------------------------------------------- 
 |---------------------------------------------------------------- 
 
--Section 4-- 
 |2--4--2-----------------------------------2--4 
 |---------4-----4/6--6/7/6--4-----------2------ 
 |------------4-----------------4--2--4--------- 
 |---------------------------------------------- 
 |---------------------------------------------- 
 |---------------------------------------------- 
Repeat Sect 3 then continue 
--Section 5-- 
 |4-----------------------0--2--4--4/5--2- 
 |---5--7--5--4--2--2--4------------------ 
 |---------------------------------------- 
 |---------------------------------------- 
 |---------------------------------------- 
 |---------------------------------------- 
 
--Section 6-- 
 |-------------------------4---------------------------------4-------- 
 |--------4-------------------4--5----------4-------------------4--5- 
 |1/2--4-----4/6---1/2--4-----------1/2--4-----4/6---1/2--4---------- 
 |--------------------------------------------------------------------  
 |-------------------------------------------------------------------- 
 |-------------------------------------------------------------------- 
  
Finish with:- 
 4--2--0--| 
 ---------| 
 ---------| 
 ---------| 
 ---------| 
 ---------| 
  
  
--SOFT ROCK VERSION-- 
use this pattern for the soft rock version-- 
Section:- intro - half of section 1 
  1 
  1 
  3 
  4 
  1 
  3 
  4 
  5 
  6 
 
Thanks for using, I will be back with more soon enough, see ya!  

roll up this ad to continue

share this page

See Also: