E-Chords
Gapatas

Prelúdio Violăo(Tabs)

Gapatas

roll up this ad to continue

Key: C
E|--------------------0-----3-----0-----------------| 
B|--------1-----3-----------------------3-----1-----| 
G|-----0-----0-----0-----0-----0-----0-----0-----0--| 
D|--------------------------------------------------| 
A|--3-----------------------------------------------| 
E|--------------------------------------------------| 

E|--------------------------------1-----0-----------| 
B|--------0-----1-----3-----0-----------------3-----| 
G|-----0-----0-----0-----0-----0-----0-----0-----0--| 
D|--------------------------------------------------| 
A|--------------------------------------------------| 
E|--3-----------------------------------------------| 

E|--------------------0-----3-----1-----0-----------| 
B|--3-----2-----3-----------------------------3-----| 
G|-----0-----0-----0-----0-----2-----2-----2-----2--| 
D|--------------------------0-----------------------| 
A|--1-----------------------------------------------| 
E|--------------------------------------------------| 

E|--------------0-----------------0-----------------| 
B|--------0-----------3-----1-----------3-----1-----| 
G|-----0-----0-----0-----0-----0-----0-----0-----0--| 
D|--------------------------------------------------| 
A|--------------------------3-----------------------| 
E|--3-----------------------------------------------| 

E|--------1-----0-----------------------------------| 
B|--3-----------------3-----1-----------------------| 
G|-----0-----0-----0-----0-----0-----0--------------| 
D|--------------------------------3-----------------| 
A|--2-----------------------3-----------------------| 
E|--------------------------------------------------| 
share this page

See Also: