E-Chords
Gapatas

12:18 (furo O Mar)(Tabs)

Gapatas

roll up this ad to continue

Key: F
I
ntro 

   C         F          Gm     C/F 
E|-0-1-2-3------------------------------| 
B|----------------------3------5--------| 
G|-----------2-3-4-5----3------5----0-0-| 
D|--------------------------------------| 
A|--------------------------------------| 
E|--------------------------------------| 

   C7M 
E|----------------------------------------------------------------| 
B|-0---0-0-0---0-0-0---0-0-0---0-0-0---0-0-0---0-0-0---0-0-0--0-0-| 
G|----------------------------------------------------------------| 
D|----------------------------------------------------------------| 
A|----------------------------------------------------------------| 
E|----------------------------------------------------------------| 

   D6 
E|----------------------------------------------------------------| 
B|-0---0-0-0---0-0-0---0-0-0---0-0-0---0-0-0---0-0-0---0-0-0--0-0-| 
G|----------------------------------------------------------------| 
D|----------------------------------------------------------------| 
A|----------------------------------------------------------------| 
E|----------------------------------------------------------------| 

Verse 1:

A B6/7 E Olha, que isso aqui tá muito bom B7 E Isso aqui tá bom demais A B7 E Olha, quem tá fora quer entrar B7 E Mas quem tá dentro não sai (bis)
Solo 

   E7              G    B7    E 
E|------------------------------------| 
B|-3---2-0-3---2-0--------------------| 
G|----------------0---0-0-----1-------| 
D|------------------------4-2---------| 
A|------------------------------------| 
E|------------------------------------| 

   E7              G    B7    C        F/C       Gm/C   C 
E|----------------------------0-1-2-3------------------------| 
B|-3---2-0-3---2-0-------------------------------------------| 
G|----------------0---0-0--------------2-3-4-5---3------5----| 
D|------------------------4-2--------------------3------5----| 
A|-----------------------------------------------------------| 
E|-----------------------------------------------------------| 

Verse 2:

C Furo o mar, furo o mal, meio-dia e dezoito G7 Converti água doce em água salgada C Seis, seis, são doze. Três vezes seis, dezoito G7 C Tenho seis, posso casar com única namorada

Verse 3:

C Am Bate o sino pequenino, sino de Belém F G Já nasceu o Deus menino para o nosso bem C Am Paz na terra pede o sino alegre a cantar F G7 C Abençoe Deus menino ele nosso lar

Verse 4:

C Noite feliz, noite santa G7 C C7 Tudo está calmo, tudo é brilhante F C Em volta da virgem mãe e criança F C Infantil Santo tão meigo e suave G G#º C Dormir na estrela da paz Fm C Dm/C G7/B C Am/C D/C G/B C/B Am7 Dormir na estrela da paaaaaaaz
Final Base 

   C 
E|---------0-----0---------0-----0-| 
B|-------1-----1---------1-----1---| 
G|-----0-----0---------0-----0-----| 
D|---2---------------2-------------| 
A|-3---------------3---------------| 
E|---------------------------------| 

   Dm/C 
E|---------1-----1---------1-----1-| 
B|-------3-----3---------3-----3---| 
G|-----2-----2---------2-----2-----| 
D|---0---------------0-------------| 
A|-3---------------3---------------| 
E|---------------------------------| 

   G7/B 
E|---------1-----1---------1-----1-| 
B|-------3-----3---------3-----3---| 
G|-----0-----0---------0-----0-----| 
D|---0---------------0-------------| 
A|-2---------------2---------------| 
E|---------------------------------| 

   C 
E|---------0-----0---------0-----0-| 
B|-------1-----1---------1-----1---| 
G|-----0-----0---------0-----0-----| 
D|---2---------------2-------------| 
A|-3---------------3---------------| 
E|---------------------------------| 

   Am/C 
E|---------5-----5---------5-----5-| 
B|-------5-----5---------5-----5---| 
G|-----2-----2---------2-----2-----| 
D|---2---------------2-------------| 
A|-3---------------3---------------| 
E|---------------------------------| 

   D/C 
E|---------------------------------| 
B|---------3-----3---------3-----3-| 
G|-------2-----2---------2-----2---| 
D|---0h4-----4-------0h4-----4-----| 
A|-3---------------3---------------| 
E|---------------------------------| 

   G 
E|---------3-----3---------3-----3-| 
B|-------3-----3---------3-----3---| 
G|-----0-----0---------0-----0-----| 
D|---0---------------0-------------| 
A|-2---------------2---------------| 
E|---------------------------------| 

   C/B 
E|---------------------------------| 
B|---------1-----1---------1-----1-| 
G|-------0-----0---------0-----0---| 
D|-----2-----2---------2-----2-----| 
A|-2/3-------------2/3-------------| 
E|---------------------------------| 

Final Melodia 
   C       Dm/C    G7/B    C 
E|-0-------1-------3-----0-1-------| 
B|---------------------------------| 
G|---------------------------------| 
D|---------------------------------| 
A|---------------------------------| 
E|---------------------------------| 

   Am/C       D/C        G/B        C/B     Am7 
E|-5---------------------3------------------8-| 
B|------------3----3-5-7------------1---------| 
G|------2-4-5-----------------0-2-4-----------| 
D|--------------------------------------------| 
A|--------------------------------------------| 
E|--------------------------------------------|
share this page

See Also: