E-Chords
Galinha Pintadinha

A Barata Diz Que Tem Temas Infantis(Tabs)

Galinha Pintadinha

roll up this ad to continue

Key: A

Tom: A 
		 
   A  barata diz que tem  sete saias de filó 

E|-------------------------------------------| 
B|-5---3-2----2---3---5---5-7---3-2---3--5-2-| 
G|---------4---------------------------------| 
D|-------------------------------------------| 
A|-------------------------------------------| 
E|------------|Tirado por Eric Ferro|---| 

   É mentira da barata, ela tem é uma só 

E|--------------------------------------------| 
B|------7-7---7-7-7-7---7-9-12--10-9-7-5------| 
G|-2--2---------------------------------------| 
D|--------------------------------------------| 
A|--------------------------------------------| 
E|--------------------------------------------| 

  Hahahá, Hohohó,  Ela tem é uma só 

E|--------------------------------------------| 
B|-5-5-10---2-3-5-----2--5--3-2---------------| 
G|------------------4-----------4-2-----------| 
D|--------------------------------------------| 
A|--------------------------------------------| 
E|--------------------------------------------| 


  Hahahá, Hohohó,  Ela tem é uma só 

E|--------------------------------------------| 
B|-5-5-10---2-3-5-----2--5--3-2---------------| 
G|------------------4-----------4-2-----------| 
D|--------------------------------------------| 
A|--------------------------------------------| 
E|--------------------------------------------| 
share this page

See Also: