E-Chords
Fuzz

Sunderberry Dream(Tabs)

Fuzz

 


Tuning: EADGBe 

Verse (x4) 
e|---------------------------------------------------------------------------| 
B|---------------------------------------------------------------------------| 
G|----------10-9-9-9-9-7-7-7-7-----------------------------------------------| 
D|----9-9-9-10-9-9-9-9-7-7-7-7-9-9-9-9---------------------------------------| 
A|----9-9-9--8-7-7-7-7-5-5-5-5-9-9-9-9---------------------------------------| 
E|----7-7-7--------------------7-7-7-7---------------------------------------| 

Chorus 
e|---------------------------------------------------------------------------| 
B|---------------------------------------------------------------------------| 
G|---8-----11-----5----------4-----9-----8----------7h8h9p8p7----------------| 
D|---9-----12-----6----------5----10-----9-------------------9---------------| 
A|---9-----12-----6----------5----10-----9-----------------------------------| 
E|---7-----10-----4----------3-----8-----7-----------------------------------| 


Verse (x4) 
e|---------------------------------------------------------------------------| 
B|---------------------------------------------------------------------------| 
G|----------10-9-9-9-9-7-7-7-7-----------------------------------------------| 
D|----9-9-9-10-9-9-9-9-7-7-7-7-9-9-9-9---------------------------------------| 
A|----9-9-9--8-7-7-7-7-5-5-5-5-9-9-9-9---------------------------------------| 
E|----7-7-7--------------------7-7-7-7---------------------------------------| 

e|---------------------------------------------------------------------------| 
B|---------------------------------------------------------------------------| 
G|---8-----11-----5----------4-----9-----8----------7h8h9p8p7----------------| 
D|---9-----12-----6----------5----10-----9-------------------9---------------| 
A|---9-----12-----6----------5----10-----9-----------------------------------| 
E|---7-----10-----4----------3-----8-----7-----------------------------------| 


e|---------------------------------------------------------------------------| 
B|---------------------------------------------------------------------------| 
G|---------------------------------------------------------------------------| 
D|--10-9-9-9-9-9-9-910-9-910-9-9-9-910-9-9-9-9-9-9-910-9-910-9---------------| 
A|--10-9-9-9-9-9-9-910-9-910-9-9-9-910-9-9-9-9-9-9-910-9-910-9---------------| 
E|---8-7-7-7-7-7-7-7-8-7-7-8-7-7-7-7-8-7-7-7-7-7-7-7-8-7-7-8-7---------------| 


x4 
e|---------------------------------------------------------------------------| 
B|---------------------------------------------------------------------------| 
G|------------9-7-7-7-7-9101111111110-7-101010-------------------------------| 
D|--9-9-9-7-8-9-7-7-7-7-9101111111110-7-101010-7-7---------------------------| 
A|--9-9-9-7-8-7-5-5-5-5-7-8-9-9-9-9-8-5--8-8-8-7-7---------------------------| 
E|--7-7-7-5-6----------------------------------5-5---------------------------| 


x6 
e|---------------------------------------------------------------------------| 
B|---------------------------------------------------------------------------| 
G|---------------------------------------------------------------------------| 
D|--9-9-9-9-9-9-9-7-7--9-9-9-9-9-9-9-7-7-------------------------------------| 
A|--9-9-9-9-9-9-9-7-7--9-9-9-9-9-9-9-7-7-------------------------------------| 
E|--7-7-7-7-7-7-7-5-5--7-7-7-7-7-7-7-5-5-------------------------------------| 

e|---------------------------------------------------------------------------| 
B|-------------------------------7---------------7~~~~7h8h9p8p7--------------| 
G|--9-9-9-9-9-9-9-7-7--9-9-9-9-9---9-7-7-----------------------9-------------| 
D|---------------------------------------------------------------------------| 
A|---------------------------------------------------------------------------| 
E|---------------------------------------------------------------------------| 

^^This part is played over the chords. There is more noodling involved 
but my ear isn't developed enough to get all of it. The second half of 
the above is played over the outro. 

Outro (x4) 
e|---------------------------------------------------------------------------| 
B|---------------------------------------------------------------------------| 
G|----------10-9-9-9-9-7-7-7-7-----------------------------------------------| 
D|----9-9-9-10-9-9-9-9-7-7-7-7-9-9-9-9---------------------------------------| 
A|----9-9-9--8-7-7-7-7-5-5-5-5-9-9-9-9---------------------------------------| 
E|----7-7-7--------------------7-7-7-7---------------------------------------| 


********************************** 

| /   slide up 
| \   slide down 
| h   hammer-on 
| p   pull-off 
| ~   vibrato 
| +   harmonic 
| x   Mute note 
| b   Bend 
| pb  Pre-bend 
| br  Bend release 
| pbr Pre-bend release 
| brb Bend release bend 

********************************** 

roll up this ad to continue

share this page

See Also: