E-Chords
Frnkiero And The Cellabration

All I Want Is Nothing(Tabs)

Frnkiero And The Cellabration

Intro 

e|-------------------------------------------------------| 
B|-------------------------------------------------------| 
G|-7777777777777777-1010101010101010-1212121212121212----| x4 
D|-7777777777777777-1010101010101010-1212121212121212----| 
A|-5555555555555555-8-8-8-8-8-8-8-8--1010101010101010----| 
E|-------------------------------------------------------| 

Verse 

e|---------------------------------------------------------------------------| 
B|---------------------------------------------------------------------------| 
G|---------------------------------------------------------------------------| x2 
D|-77777777----------44444444------------------------------------------------| 
A|-55555555-44444444-22222222-55555555---------------------------------------| 
E|----------22222222----------33333333---------------------------------------| 

Chorus 

e|---------------------------------------------------------------------------| 
B|---------------------------------------------------------------------------| 
G|---------------------------------------------------------------------------|  
D|-77777777----------44444444------------------------------------------------| 
A|-55555555-44444444-22222222-55555555---------------------------------------| 
E|----------22222222----------33333333---------------------------------------| 

e|-------------------------------------------------------| 
B|-------------------------------------------------------| 
G|----------------------------------------------------9--|  
D|-77777777----------44444444-------------------------9--| 
A|-55555555-44444444-22222222-5-5-5-5-5-5-5-5-5-5-5-5-7--| 
E|----------22222222----------3-3-3-3-3-3-3-3-3-3-3-3----| 

e|-------------------------------------------------------| 
B|-------------------------------------------------------| 
G|-7777777777777777-1010101010101010-1212121212121212----| x2 
D|-7777777777777777-1010101010101010-1212121212121212----| 
A|-5555555555555555-8-8-8-8-8-8-8-8--1010101010101010----| 
E|-------------------------------------------------------| 

Verse 

e|---------------------------------------------------------------------------| 
B|---------------------------------------------------------------------------| 
G|---------------------------------------------------------------------------| x2 
D|-77777777----------44444444------------------------------------------------| 
A|-55555555-44444444-22222222-55555555---------------------------------------| 
E|----------22222222----------33333333---------------------------------------| 

Chorus 

e|---------------------------------------------------------------------------| 
B|---------------------------------------------------------------------------| 
G|---------------------------------------------------------------------------|  
D|-77777777----------44444444------------------------------------------------| 
A|-55555555-44444444-22222222-55555555---------------------------------------| 
E|----------22222222----------33333333---------------------------------------| 

e|-----------------------------------------------------------------------------3--| 
B|-----------------------------------------------------------------------------3--| 
G|-----------------------------------------------------------------------------3--|  
D|-77777777----------44444444--------------------------------------------------5--| 
A|-55555555-44444444-22222222-5-5-5-5-5-5-5-5-5-5-5-5-5-5-5-5-5-5-5-5-5-5-5-5--5--| 
E|----------22222222----------3-3-3-3-3-3-3-3-3-3-3-3-3-3-3-3-3-3-3-3-3-3-3-3--3--| 

Verse 

e|------------| 
B|------------| 
G|-99999999---| 
D|-99999999---| 
A|-77777777---| 
E|------------| 

e|-------------------------------------------------------| 
B|-------------------------------------------------------| 
G|-7777777777777777-1010101010101010-1212121212121212----| x4 
D|-7777777777777777-1010101010101010-1212121212121212----| 
A|-5555555555555555-8-8-8-8-8-8-8-8--1010101010101010----| 
E|-------------------------------------------------------|  

roll up this ad to continue

share this page

See Also: