E-Chords
Friedrich Hollaender

Eine Liebelei So Nebenbei(Tabs)

Friedrich Hollaender

roll up this ad to continue

e|-------------------------5---8--|12------------------10----------|---------------------0---1---3--| 
B|---------------------6----------|11----------------------11---8--|--------------------------------| 
G|-----------------5--------------|-9------------------------------|-7------------------------------| 
D|--------------------------------|--------------------------------|-8------------------------------| 
A|--------------------------------|--------------------------------|--------------------------------| 
E|--------------------------------|--------------------------------|--------------------------------| 
                                                                                                     
                                                                                                     
e|-5------------------------------|-------------------------5------|-8------------------------------| 
B|-5-------3-------3-------3------|-3-----------------------4------|-6-------3-------3-------4------| 
G|-5-------2-------2---1---0------|-------------------------5------|-7-------3-------3-------5------| 
D|---------3----------------------|-4------------------------------|---------3-------3-------4------| 
A|--------------------------------|--------------------------------|--------------------------------| 
E|--------------------------------|--------------------------------|--------------------------------| 
                                                                                                     
                                                                                                     
e|-0-------5-------5-------5------|-1------------------------------|--------------------------------| 
B|---------5-------5-------5------|-1------------------------------|--------------------------------| 
G|-3-------5-------5-------5------|-2-------2-------2-------2------|-2-------2-------2-------2------| 
D|-5------------------------------|---------3-------3-------3------|-3-------3-------3-------3------| 
A|--------------------------------|---------3-------3-------3------|-3-------3-------3-------3------| 
E|--------------------------------|--------------------------------|--------------------------------| 
                                                                                                     
                                                                                                     
e|-------------------------------||-------------------------8------|-8-------7---6---5-------4---3--| 
B|-------------------------------||--------------------------------|10------------------------------| 
G|-2-------2-------2-------2-----||--2------2-------2------10------|10---------------6--------------| 
D|-3-------3-------3-------3-----||--3------3-------3--------------|10------------------------------| 
A|-3-------3-------3-------3-----||--3------3-------3--------------|--------------------------------| 
E|-------------------------------||--------------------------------|--------------------------------| 
                                                          Man      leiht   ei- ne  Frau   sich nicht 
                                                                   sagt nicht, ich ha-     be  dich  
                                                                                                     
e|-1-------0---------------0---1--|-0-------8------X--------1------|-0-------8------X-------10------| 
B|-1-----------4---3--------------|----------------X--------0------|----------------X-------12------| 
G|-----------------4--------------|-3-------9------X---------------|-3-------9------X---------------| 
D|--------------------------------|----------------X---------------|----------------X---------------| 
A|--------------------------------|----------------X---------------|----------------X---------------| 
E|--------------------------------|----------------X---------------|----------------X---------------| 
 aus     von halb fünf   bis halb sie-    ben,                                             und       
 lieb,   a-  ber lei-    der nur  heu-    te.                                              So        
                                                                                                     
e|10-------9---8---6-------5---4--|-3-------2---1---0-------1---3--|-1------10------X--------3------| 
B|11---------------7--------------|-3------------------------------|----------------X---------------| 
G|12---------------8--------------|-----------------3--------------|-2------10------X--------3------| 
D|12------------------------------|--------------------------------|----------------X---------------| 
A|--------------------------------|--------------------------------|----------------X---------------| 
E|--------------------------------|--------------------------------|----------------X---------------| 
 schickt sie dann wie-   der nach Haus,   so  was nennt   man nicht lie-   ben                       
 däm-   lich ist nicht   mal ein  Dieb,   der be- hält    sei-ne   Beu-    te                        
                                                                                                     
e|-1------10------X--------8------|-8-------7---6---5-------4---3--|-------------------------0---1--| 
B|----------------X---------------|10------------------------------|-6-------5---4---3--------------| 
G|-2------10------X--------5------|10---------------6--------------|-5---------------5--------------| 
D|----------------X---------------|10------------------------------|--------------------------------| 
A|----------------X---------------|--------------------------------|--------------------------------| 
E|----------------X---------------|--------------------------------|--------------------------------| 
                         Man      liebt   ei- ne  Frau    kei-ne   Spur,   die man wie-    der zu-   
                         Die      Frau,   die nur halb    mir ge-  hört,   auf die Lie-    be  ver-  
                                                                                                     
e|-0-------8------X--------7------|-5--------------X---------------|-1-------3---5---8-------5------| 
B|----------------X--------0------|---------5------X--------5------|-3---------------6-----------6--| 
G|-5-------9------X---------------|-6-------5------X--------5------|--------------------------------| 
D|----------------X---------------|----------------X---------------|--------------------------------| 
A|----------------X---------------|----------------X---------------|--------------------------------| 
E|----------------X---------------|----------------X---------------|--------------------------------| 
 rück    bringt,                                          ein      Kuss    mit dem Blick   auf die   
 zicht   ich.                                             Ein      Lieb-   ha-ber, den     das nicht 
                                                                                                     
e|-----------------5--------------|10-------8------X-------10------|-8------X----------------5---8--| 
B|-3-------5---6-----------6---3--|----------------X-------10------|11------X------------6----------| 
G|-2---------------4--------------|10-------9------X-------11------|-9------X--------5--------------| 
D|--------------------------------|----------------X---------------|--------X-----------------------| 
A|--------------------------------|----------------X---------------|--------X-----------------------| 
E|--------------------------------|----------------X---------------|--------X-----------------------| 
 Uhr,    ist ein Kuss,   der kein Glück   bringt.                                  Ei- ne  Lie-be-   
 stört,  der ist si-    cher nicht rich-  tig.                                                       
                                                                                                     
e|12------------------10----------|---------------------0---1---3--|-5------------------------------| 
B|11----------------------11---8--|--------------------------------|-5-------3-------3-------3------| 
G|-9------------------------------|-7------------------------------|-5-------2-------2-------1------| 
D|--------------------------------|-8------------------------------|---------3-------3-------2------| 
A|--------------------------------|--------------------------------|--------------------------------| 
E|--------------------------------|--------------------------------|--------------------------------| 
 lei,                so  ne- ben- bei,              passt nicht zu Ih-     nen,    gnäd-   'ge       
                                                                                                     
                                                                                                     
e|-------------------------5---8--|12------------------10----------|---------------------0---1---3--| 
B|-3-------------------6----------|11----------------------11------|--------------------------------| 
G|-2---------------5--------------|-9---------------------------8--|-7------------------------------| 
D|-3------------------------------|--------------------------------|-8------------------------------| 
A|--------------------------------|--------------------------------|--------------------------------| 
E|--------------------------------|--------------------------------|--------------------------------| 
 Frau.           Nachmittags zu   zwei'n              und nachts allein              passt nicht zu  
                                                                                                     
                                                                                                     
e|-5------------------------------|-------------------------5------|-8------------------------------| 
B|-5-------3-------3-------3------|-3-----------------------4------|-6-------3-------3-------3------| 
G|-5-------2-------2-------1------|-2-----------------------5------|-7-------3-------3-------2------| 
D|---------3-------3-------2------|-3------------------------------|---------3-------3-------1------| 
A|--------------------------------|--------------------------------|--------------------------------| 
E|--------------------------------|--------------------------------|--------------------------------| 
 Ih-     nen,    gnäd-   'ge      Frau.                   Die      Lie-    be,     gnäd-   'ge       
                                                                                                     
                                                                                                     
e|------------------8----5----8---|10--------------10--------------|-------------------------8------| 
B|-3------------------------------|--------------------------------|--------------------------------| 
G|-3----------------9----5----9---|10--------------10--------------|--------------------------------| 
D|-2------------------------------|12--------------12--------------|------------------------10------| 
A|--------------------------------|--------------------------------|--------------------------------| 
E|--------------------------------|--------------------------------|--------------------------------| 
 Frau,          scheut die  Ge-   fahr            nicht,                                   man       
                                                                                                     
                                                                                                     
e|12-------1-------1-------1------|-2----------------9----7----8---|12--------------12--------------| 
B|---------3-------3-------2------|-3------------------------------|14--------------13--------------| 
G|11-------2-------2-------0------|-1----------------9----7----9---|------------------------16------| 
D|--------------------------------|--------------------------------|14--------------14------14------| 
A|--------------------------------|--------------------------------|--------------------------------| 
E|--------------------------------|--------------------------------|--------------------------------| 
 liebt   sich,   gnäd-   'ge      Frau,            ganz o-   der   gar             nicht.            
                                                                                                     
                                                                                                     
e|-7------X----------------5---8--|12------------------10----------|---------------------0---1---3--| 
B|-5------X------------6----------|11----------------------11---8--|--------------------------------| 
G|--------X--------5--------------|-9------------------------------|-7------------------------------| 
D|--------X-----------------------|--------------------------------|-8------------------------------| 
A|--------X-----------------------|--------------------------------|--------------------------------| 
E|--------X-----------------------|--------------------------------|--------------------------------| 
                 Ei- ne  Lie-be-  lei,                so  ne- ben- bei,              passt nicht zu  
                                                                                                     
                                                                                                     
e|-5------------------------------|-------------------------5------|-8------------------------------| 
B|-5-------3-------3-------3------|-3-----------------------4------|-6-------3-------3-------4------| 
G|-5-------2-------2---1---0------|-------------------------5------|-7-------3-------3-------5------| 
D|---------3----------------------|-4------------------------------|---------3-------3-------4------| 
A|--------------------------------|--------------------------------|--------------------------------| 
E|--------------------------------|--------------------------------|--------------------------------| 
 Ih-     nen,    gnäd-   'ge      Frau,                   passt    wirk-   lich    nicht   zu        
                                                                                                     
                                  _1._______________________________________________________________ 
e|---------5-------5-------5------|-1------------------------------|--------------------------------| 
B|-5-------3-------3-------3------|-1------------------------------|--------------------------------| 
G|-3-------5-------5-------5------|-2-------2-------2-------2------|-2-------2-------2-------2------| 
D|-5------------------------------|---------3-------3-------3------|-3-------3-------3-------3------| 
A|--------------------------------|---------3-------3-------3------|-3-------3-------3-------3------| 
E|--------------------------------|--------------------------------|--------------------------------| 
 Ih-     nen,    gnäd-   'ge      Frau! __________________________________________________________   
                                                                                                     
__________________________________________________________________ _2.______________________________ 
e|--------------------------------|-------------------------8------||-1-----------------------------| 
B|--------------------------------|--------------------------------||-1------1----------------------| 
G|-2-------2-------2-------2------|-2-------2-------2-------5------||-2------2-------4-------3------| 
D|-3-------3-------3-------3------|-3-------3-------3--------------||----------------6-------5------| 
A|-3-------3-------3-------3------|-3-------3-------3--------------||-------------------------------| 
E|--------------------------------|--------------------------------||-------------------------------| 
                                                                    Frau! 
                                                                                                     
__________________________________                                                                   
e|-----------------1------X-------||                                                                  
B|---------1-------1------X-------||                                                                  
G|-2-------1-------2------X-------||                                                                  
D|-3-------2-------3------X-------||                                                                  
A|------------------------X-------||                                                                  
E|------------------------X-------|| 
share this page

See Also: