E-Chords
Freedom faces

O cume da montanha(Tabs)

Freedom faces

Key: A
------------------------------- 
------------------------------- 
-----------------------5-4-3-2- 
------------------------------- 
------------------------------- 
------------------------------- 
  Quando olhamos para frente... 
vemos o que tem a seguir... 
------------------------------- 
------------------------------- 
-2-1--------------------------- 
-----2-1----------------------- 
---------2-1------------------- 
-------------2-1--------------- 
        A          C     Em 
Vou descer pra depois subir... 
A C Em  
        Pois somente... Em 
            A C Em 
O cume interessa... 
       A   C                Em 
Vou subir pois estou com pressa... 
A C Em 
        Pois somente... Em 
 
Solo: 
 
 
--------------------------------------------------- 
--------------------------------------------------- 
-7-7-7-7-----------------5-5-5-5-7-6-5------------- 
---------5-5-5-5-7-7-7-7---------------7-6-5-------      2x 
---------------------------------------------7-6-5- 
--------------------------------------------------- 
 
A C Em 
A C Em 
 
------------------------------- 
------------------------------- 
-----------------------5-4-3-2- 
------------------------------- 
------------------------------- 
------------------------------- 
  Quando olhamos para frente... 
vemos o que tem a seguir... 
------------------------------- 
------------------------------- 
-2-1--------------------------- 
-----2-1----------------------- 
---------2-1------------------- 
-------------2-1--------------- 
        A          C     Em 
Vou descer pra depois subir... 
A C Em  
        Pois somente... Em 
            A C Em 
O cume interessa... 
       A   C                Em 
Vou subir pois estou com pressa... 
A C Em 
        Pois somente... Em 

roll up this ad to continue

share this page

See Also: